  0
SECTION
  2
HEADER
  9
$ACADVER
  1
AC1009
  9
$INSBASE
 10
0.00000000
 20
0.00000000
 30
0.00000000
  9
$EXTMIN
 10
2128.62605514
 20
2144.06671578
 30
0.00000000
  9
$EXTMAX
 10
2528.41770703
 20
5670.45548086
 30
0.00000000
  9
$HANDLING
 70
4097
  9
$HANDSEED
  5
36C
  0
ENDSEC
  0
SECTION
  2
TABLES
  0
TABLE
  2
LTYPE
 70
3
  0
LTYPE
  2
ByBlock
 70
0
  3

 72
65
 73
0
 40
0.00000000
  0
LTYPE
  2
ByLayer
 70
0
  3

 72
65
 73
0
 40
0.00000000
  0
LTYPE
  2
CONTINUOUS
 70
0
  3
Solid line
 72
65
 73
0
 40
0.00000000
  0
ENDTAB
  0
TABLE
  2
LAYER
 70
1
  0
LAYER
  2
0
 70
0
 62
7
  6
CONTINUOUS
  0
ENDTAB
  0
TABLE
  2
STYLE
 70
1
  0
STYLE
  2
STANDARD
 70
0
 40
0.00000000
 41
1.00000000
 50
0.00000000
 71
0
 42
0.20000000
  3
txt
  4

  0
ENDTAB
  0
TABLE
  2
VIEW
 70
0
  0
ENDTAB
  0
TABLE
  2
UCS
 70
0
  0
ENDTAB
  0
TABLE
  2
APPID
 70
2
  0
APPID
  2
ACAD
 70
0
  0
APPID
  2
CONTENTBLOCKICON
 70
0
  0
ENDTAB
  0
ENDSEC
  0
SECTION
  2
BLOCKS
  0
BLOCK
  8
0
  2
$MODEL_SPACE
 70
0
 10
0.00000000
 20
0.00000000
 30
0.00000000
  3
$MODEL_SPACE
  1

  0
ENDBLK
  5
27
  8
0
  0
BLOCK
 67
1
  8
0
  2
$PAPER_SPACE
 70
0
 10
0.00000000
 20
0.00000000
 30
0.00000000
  3
$PAPER_SPACE
  1

  0
ENDBLK
  5
28
 67
1
  8
0
  0
BLOCK
  8
0
  2
DIAGCROSS
 70
2
 10
0.00000000
 20
0.00000000
 30
0.00000000
  3
DIAGCROSS
  1

  0
LINE
  5
29
  8
0
   6
CONTINUOUS
 10
   -0.50
 20
    0.50
 30
    0.00
 11
    0.50
 21
   -0.50
 31
    0.00
  0
LINE
  5
2A
  8
0
   6
CONTINUOUS
 10
    0.50
 20
   -0.50
 30
    0.00
 11
   -0.50
 21
    0.50
 31
    0.00
  0
LINE
  5
2B
  8
0
   6
CONTINUOUS
 10
    0.50
 20
    0.50
 30
    0.00
 11
   -0.50
 21
   -0.50
 31
    0.00
  0
LINE
  5
2C
  8
0
   6
CONTINUOUS
 10
   -0.50
 20
   -0.50
 30
    0.00
 11
    0.50
 21
    0.50
 31
    0.00
  0
ATTDEF
  5
2D
  8
0
  6
CONTINUOUS
 10
    0.50
 20
    0.50
 30
    0.00
 40
10.00
  1

  3
ENTER LABEL
  2
LABEL
 70
0
  0
ENDBLK
  5
2E
  8
0
  0
BLOCK
  8
0
  2
CROSS
 70
2
 10
0.00000000
 20
0.00000000
 30
0.00000000
  3
CROSS
  1

  0
LINE
  5
2F
  8
0
   6
CONTINUOUS
 10
   -0.50
 20
    0.00
 30
    0.00
 11
    0.50
 21
    0.00
 31
    0.00
  0
LINE
  5
30
  8
0
   6
CONTINUOUS
 10
    0.00
 20
    0.50
 30
    0.00
 11
    0.00
 21
   -0.50
 31
    0.00
  0
ATTDEF
  5
31
  8
0
  6
CONTINUOUS
 10
    0.50
 20
    0.50
 30
    0.00
 40
10.00
  1

  3
ENTER LABEL
  2
LABEL
 70
0
  0
ENDBLK
  5
32
  8
0
  0
BLOCK
  8
0
  2
DIAMOND
 70
2
 10
0.00000000
 20
0.00000000
 30
0.00000000
  3
DIAMOND
  1

  0
LINE
  5
33
  8
0
   6
CONTINUOUS
 10
   -0.50
 20
    0.00
 30
    0.00
 11
    0.00
 21
    0.50
 31
    0.00
  0
LINE
  5
34
  8
0
   6
CONTINUOUS
 10
    0.00
 20
    0.50
 30
    0.00
 11
    0.50
 21
    0.00
 31
    0.00
  0
LINE
  5
35
  8
0
   6
CONTINUOUS
 10
    0.50
 20
    0.00
 30
    0.00
 11
    0.00
 21
   -0.50
 31
    0.00
  0
LINE
  5
36
  8
0
   6
CONTINUOUS
 10
    0.00
 20
   -0.50
 30
    0.00
 11
   -0.50
 21
    0.00
 31
    0.00
  0
ATTDEF
  5
37
  8
0
  6
CONTINUOUS
 10
    0.35
 20
    0.35
 30
    0.00
 40
10.00
  1

  3
ENTER LABEL
  2
LABEL
 70
0
  0
ENDBLK
  5
38
  8
0
  0
BLOCK
  8
0
  2
DIAMONDFILL
 70
2
 10
0.00000000
 20
0.00000000
 30
0.00000000
  3
DIAMONDFILL
  1

  0
LINE
  5
39
  8
0
   6
CONTINUOUS
 10
   -0.50
 20
    0.00
 30
    0.00
 11
    0.00
 21
    0.50
 31
    0.00
  0
LINE
  5
3A
  8
0
   6
CONTINUOUS
 10
    0.00
 20
    0.50
 30
    0.00
 11
    0.50
 21
    0.00
 31
    0.00
  0
LINE
  5
3B
  8
0
   6
CONTINUOUS
 10
    0.50
 20
    0.00
 30
    0.00
 11
    0.00
 21
   -0.50
 31
    0.00
  0
LINE
  5
3C
  8
0
   6
CONTINUOUS
 10
    0.00
 20
   -0.50
 30
    0.00
 11
   -0.50
 21
    0.00
 31
    0.00
  0
ATTDEF
  5
3D
  8
0
  6
CONTINUOUS
 10
    0.35
 20
    0.35
 30
    0.00
 40
10.00
  1

  3
ENTER LABEL
  2
LABEL
 70
0
  0
ENDBLK
  5
3E
  8
0
  0
BLOCK
  8
0
  2
WYE
 70
2
 10
0.00000000
 20
0.00000000
 30
0.00000000
  3
WYE
  1

  0
LINE
  5
3F
  8
0
   6
CONTINUOUS
 10
   -0.50
 20
    0.50
 30
    0.00
 11
    0.00
 21
    0.00
 31
    0.00
  0
LINE
  5
40
  8
0
   6
CONTINUOUS
 10
    0.00
 20
    0.00
 30
    0.00
 11
    0.50
 21
    0.50
 31
    0.00
  0
LINE
  5
41
  8
0
   6
CONTINUOUS
 10
    0.00
 20
   -0.50
 30
    0.00
 11
    0.00
 21
    0.00
 31
    0.00
  0
ATTDEF
  5
42
  8
0
  6
CONTINUOUS
 10
    0.50
 20
    0.50
 30
    0.00
 40
10.00
  1

  3
ENTER LABEL
  2
LABEL
 70
0
  0
ENDBLK
  5
43
  8
0
  0
BLOCK
  8
0
  2
CIRCLE
 70
2
 10
0.00000000
 20
0.00000000
 30
0.00000000
  3
CIRCLE
  1

  0
LINE
  5
44
  8
0
   6
CONTINUOUS
 10
    0.00
 20
    0.50
 30
    0.00
 11
    0.13
 21
    0.48
 31
    0.00
  0
LINE
  5
45
  8
0
   6
CONTINUOUS
 10
    0.13
 20
    0.48
 30
    0.00
 11
    0.25
 21
    0.43
 31
    0.00
  0
LINE
  5
46
  8
0
   6
CONTINUOUS
 10
    0.25
 20
    0.43
 30
    0.00
 11
    0.35
 21
    0.35
 31
    0.00
  0
LINE
  5
47
  8
0
   6
CONTINUOUS
 10
    0.35
 20
    0.35
 30
    0.00
 11
    0.43
 21
    0.25
 31
    0.00
  0
LINE
  5
48
  8
0
   6
CONTINUOUS
 10
    0.43
 20
    0.25
 30
    0.00
 11
    0.48
 21
    0.13
 31
    0.00
  0
LINE
  5
49
  8
0
   6
CONTINUOUS
 10
    0.48
 20
    0.13
 30
    0.00
 11
    0.50
 21
    0.00
 31
    0.00
  0
LINE
  5
4A
  8
0
   6
CONTINUOUS
 10
    0.50
 20
    0.00
 30
    0.00
 11
    0.48
 21
   -0.13
 31
    0.00
  0
LINE
  5
4B
  8
0
   6
CONTINUOUS
 10
    0.48
 20
   -0.13
 30
    0.00
 11
    0.43
 21
   -0.25
 31
    0.00
  0
LINE
  5
4C
  8
0
   6
CONTINUOUS
 10
    0.43
 20
   -0.25
 30
    0.00
 11
    0.35
 21
   -0.35
 31
    0.00
  0
LINE
  5
4D
  8
0
   6
CONTINUOUS
 10
    0.35
 20
   -0.35
 30
    0.00
 11
    0.25
 21
   -0.43
 31
    0.00
  0
LINE
  5
4E
  8
0
   6
CONTINUOUS
 10
    0.25
 20
   -0.43
 30
    0.00
 11
    0.13
 21
   -0.48
 31
    0.00
  0
LINE
  5
4F
  8
0
   6
CONTINUOUS
 10
    0.13
 20
   -0.48
 30
    0.00
 11
    0.00
 21
   -0.50
 31
    0.00
  0
LINE
  5
50
  8
0
   6
CONTINUOUS
 10
    0.00
 20
   -0.50
 30
    0.00
 11
   -0.13
 21
   -0.48
 31
    0.00
  0
LINE
  5
51
  8
0
   6
CONTINUOUS
 10
   -0.13
 20
   -0.48
 30
    0.00
 11
   -0.25
 21
   -0.43
 31
    0.00
  0
LINE
  5
52
  8
0
   6
CONTINUOUS
 10
   -0.25
 20
   -0.43
 30
    0.00
 11
   -0.35
 21
   -0.35
 31
    0.00
  0
LINE
  5
53
  8
0
   6
CONTINUOUS
 10
   -0.35
 20
   -0.35
 30
    0.00
 11
   -0.43
 21
   -0.25
 31
    0.00
  0
LINE
  5
54
  8
0
   6
CONTINUOUS
 10
   -0.43
 20
   -0.25
 30
    0.00
 11
   -0.48
 21
   -0.13
 31
    0.00
  0
LINE
  5
55
  8
0
   6
CONTINUOUS
 10
   -0.48
 20
   -0.13
 30
    0.00
 11
   -0.50
 21
    0.00
 31
    0.00
  0
LINE
  5
56
  8
0
   6
CONTINUOUS
 10
   -0.50
 20
    0.00
 30
    0.00
 11
   -0.48
 21
    0.13
 31
    0.00
  0
LINE
  5
57
  8
0
   6
CONTINUOUS
 10
   -0.48
 20
    0.13
 30
    0.00
 11
   -0.43
 21
    0.25
 31
    0.00
  0
LINE
  5
58
  8
0
   6
CONTINUOUS
 10
   -0.43
 20
    0.25
 30
    0.00
 11
   -0.35
 21
    0.35
 31
    0.00
  0
LINE
  5
59
  8
0
   6
CONTINUOUS
 10
   -0.35
 20
    0.35
 30
    0.00
 11
   -0.25
 21
    0.43
 31
    0.00
  0
LINE
  5
5A
  8
0
   6
CONTINUOUS
 10
   -0.25
 20
    0.43
 30
    0.00
 11
   -0.13
 21
    0.48
 31
    0.00
  0
LINE
  5
5B
  8
0
   6
CONTINUOUS
 10
   -0.13
 20
    0.48
 30
    0.00
 11
    0.00
 21
    0.50
 31
    0.00
  0
ATTDEF
  5
5C
  8
0
  6
CONTINUOUS
 10
    0.38
 20
    0.38
 30
    0.00
 40
10.00
  1

  3
ENTER LABEL
  2
LABEL
 70
0
  0
ENDBLK
  5
5D
  8
0
  0
BLOCK
  8
0
  2
CIRCLEFILL
 70
2
 10
0.00000000
 20
0.00000000
 30
0.00000000
  3
CIRCLEFILL
  1

  0
LINE
  5
5E
  8
0
   6
CONTINUOUS
 10
    0.00
 20
    0.50
 30
    0.00
 11
    0.13
 21
    0.48
 31
    0.00
  0
LINE
  5
5F
  8
0
   6
CONTINUOUS
 10
    0.13
 20
    0.48
 30
    0.00
 11
    0.25
 21
    0.43
 31
    0.00
  0
LINE
  5
60
  8
0
   6
CONTINUOUS
 10
    0.25
 20
    0.43
 30
    0.00
 11
    0.35
 21
    0.35
 31
    0.00
  0
LINE
  5
61
  8
0
   6
CONTINUOUS
 10
    0.35
 20
    0.35
 30
    0.00
 11
    0.43
 21
    0.25
 31
    0.00
  0
LINE
  5
62
  8
0
   6
CONTINUOUS
 10
    0.43
 20
    0.25
 30
    0.00
 11
    0.48
 21
    0.13
 31
    0.00
  0
LINE
  5
63
  8
0
   6
CONTINUOUS
 10
    0.48
 20
    0.13
 30
    0.00
 11
    0.50
 21
    0.00
 31
    0.00
  0
LINE
  5
64
  8
0
   6
CONTINUOUS
 10
    0.50
 20
    0.00
 30
    0.00
 11
    0.48
 21
   -0.13
 31
    0.00
  0
LINE
  5
65
  8
0
   6
CONTINUOUS
 10
    0.48
 20
   -0.13
 30
    0.00
 11
    0.43
 21
   -0.25
 31
    0.00
  0
LINE
  5
66
  8
0
   6
CONTINUOUS
 10
    0.43
 20
   -0.25
 30
    0.00
 11
    0.35
 21
   -0.35
 31
    0.00
  0
LINE
  5
67
  8
0
   6
CONTINUOUS
 10
    0.35
 20
   -0.35
 30
    0.00
 11
    0.25
 21
   -0.43
 31
    0.00
  0
LINE
  5
68
  8
0
   6
CONTINUOUS
 10
    0.25
 20
   -0.43
 30
    0.00
 11
    0.13
 21
   -0.48
 31
    0.00
  0
LINE
  5
69
  8
0
   6
CONTINUOUS
 10
    0.13
 20
   -0.48
 30
    0.00
 11
    0.00
 21
   -0.50
 31
    0.00
  0
LINE
  5
6A
  8
0
   6
CONTINUOUS
 10
    0.00
 20
   -0.50
 30
    0.00
 11
   -0.13
 21
   -0.48
 31
    0.00
  0
LINE
  5
6B
  8
0
   6
CONTINUOUS
 10
   -0.13
 20
   -0.48
 30
    0.00
 11
   -0.25
 21
   -0.43
 31
    0.00
  0
LINE
  5
6C
  8
0
   6
CONTINUOUS
 10
   -0.25
 20
   -0.43
 30
    0.00
 11
   -0.35
 21
   -0.35
 31
    0.00
  0
LINE
  5
6D
  8
0
   6
CONTINUOUS
 10
   -0.35
 20
   -0.35
 30
    0.00
 11
   -0.43
 21
   -0.25
 31
    0.00
  0
LINE
  5
6E
  8
0
   6
CONTINUOUS
 10
   -0.43
 20
   -0.25
 30
    0.00
 11
   -0.48
 21
   -0.13
 31
    0.00
  0
LINE
  5
6F
  8
0
   6
CONTINUOUS
 10
   -0.48
 20
   -0.13
 30
    0.00
 11
   -0.50
 21
    0.00
 31
    0.00
  0
LINE
  5
70
  8
0
   6
CONTINUOUS
 10
   -0.50
 20
    0.00
 30
    0.00
 11
   -0.48
 21
    0.13
 31
    0.00
  0
LINE
  5
71
  8
0
   6
CONTINUOUS
 10
   -0.48
 20
    0.13
 30
    0.00
 11
   -0.43
 21
    0.25
 31
    0.00
  0
LINE
  5
72
  8
0
   6
CONTINUOUS
 10
   -0.43
 20
    0.25
 30
    0.00
 11
   -0.35
 21
    0.35
 31
    0.00
  0
LINE
  5
73
  8
0
   6
CONTINUOUS
 10
   -0.35
 20
    0.35
 30
    0.00
 11
   -0.25
 21
    0.43
 31
    0.00
  0
LINE
  5
74
  8
0
   6
CONTINUOUS
 10
   -0.25
 20
    0.43
 30
    0.00
 11
   -0.13
 21
    0.48
 31
    0.00
  0
LINE
  5
75
  8
0
   6
CONTINUOUS
 10
   -0.13
 20
    0.48
 30
    0.00
 11
    0.00
 21
    0.50
 31
    0.00
  0
ATTDEF
  5
76
  8
0
  6
CONTINUOUS
 10
    0.38
 20
    0.38
 30
    0.00
 40
10.00
  1

  3
ENTER LABEL
  2
LABEL
 70
0
  0
ENDBLK
  5
77
  8
0
  0
BLOCK
  8
0
  2
STAR
 70
2
 10
0.00000000
 20
0.00000000
 30
0.00000000
  3
STAR
  1

  0
LINE
  5
78
  8
0
   6
CONTINUOUS
 10
   -0.40
 20
    0.40
 30
    0.00
 11
    0.40
 21
   -0.40
 31
    0.00
  0
LINE
  5
79
  8
0
   6
CONTINUOUS
 10
    0.40
 20
    0.40
 30
    0.00
 11
   -0.40
 21
   -0.40
 31
    0.00
  0
LINE
  5
7A
  8
0
   6
CONTINUOUS
 10
   -0.50
 20
    0.00
 30
    0.00
 11
    0.50
 21
    0.00
 31
    0.00
  0
ATTDEF
  5
7B
  8
0
  6
CONTINUOUS
 10
    0.50
 20
    0.50
 30
    0.00
 40
10.00
  1

  3
ENTER LABEL
  2
LABEL
 70
0
  0
ENDBLK
  5
7C
  8
0
  0
BLOCK
  8
0
  2
SQUARE
 70
2
 10
0.00000000
 20
0.00000000
 30
0.00000000
  3
SQUARE
  1

  0
LINE
  5
7D
  8
0
   6
CONTINUOUS
 10
   -0.50
 20
    0.50
 30
    0.00
 11
    0.50
 21
    0.50
 31
    0.00
  0
LINE
  5
7E
  8
0
   6
CONTINUOUS
 10
    0.50
 20
    0.50
 30
    0.00
 11
    0.50
 21
   -0.50
 31
    0.00
  0
LINE
  5
7F
  8
0
   6
CONTINUOUS
 10
    0.50
 20
   -0.50
 30
    0.00
 11
   -0.50
 21
   -0.50
 31
    0.00
  0
LINE
  5
80
  8
0
   6
CONTINUOUS
 10
   -0.50
 20
   -0.50
 30
    0.00
 11
   -0.50
 21
    0.50
 31
    0.00
  0
ATTDEF
  5
81
  8
0
  6
CONTINUOUS
 10
    0.50
 20
    0.50
 30
    0.00
 40
10.00
  1

  3
ENTER LABEL
  2
LABEL
 70
0
  0
ENDBLK
  5
82
  8
0
  0
BLOCK
  8
0
  2
SQUAREFILL
 70
2
 10
0.00000000
 20
0.00000000
 30
0.00000000
  3
SQUAREFILL
  1

  0
LINE
  5
83
  8
0
   6
CONTINUOUS
 10
   -0.50
 20
    0.50
 30
    0.00
 11
    0.50
 21
    0.50
 31
    0.00
  0
LINE
  5
84
  8
0
   6
CONTINUOUS
 10
    0.50
 20
    0.50
 30
    0.00
 11
    0.50
 21
   -0.50
 31
    0.00
  0
LINE
  5
85
  8
0
   6
CONTINUOUS
 10
    0.50
 20
   -0.50
 30
    0.00
 11
   -0.50
 21
   -0.50
 31
    0.00
  0
LINE
  5
86
  8
0
   6
CONTINUOUS
 10
   -0.50
 20
   -0.50
 30
    0.00
 11
   -0.50
 21
    0.50
 31
    0.00
  0
ATTDEF
  5
87
  8
0
  6
CONTINUOUS
 10
    0.50
 20
    0.50
 30
    0.00
 40
10.00
  1

  3
ENTER LABEL
  2
LABEL
 70
0
  0
ENDBLK
  5
88
  8
0
  0
BLOCK
  8
0
  2
TRIANGLE
 70
2
 10
0.00000000
 20
0.00000000
 30
0.00000000
  3
TRIANGLE
  1

  0
LINE
  5
89
  8
0
   6
CONTINUOUS
 10
    0.00
 20
    0.50
 30
    0.00
 11
    0.50
 21
   -0.50
 31
    0.00
  0
LINE
  5
8A
  8
0
   6
CONTINUOUS
 10
    0.50
 20
   -0.50
 30
    0.00
 11
   -0.50
 21
   -0.50
 31
    0.00
  0
LINE
  5
8B
  8
0
   6
CONTINUOUS
 10
   -0.50
 20
   -0.50
 30
    0.00
 11
    0.00
 21
    0.50
 31
    0.00
  0
ATTDEF
  5
8C
  8
0
  6
CONTINUOUS
 10
    0.38
 20
    0.38
 30
    0.00
 40
10.00
  1

  3
ENTER LABEL
  2
LABEL
 70
0
  0
ENDBLK
  5
8D
  8
0
  0
BLOCK
  8
0
  2
TRIANGLEFILL
 70
2
 10
0.00000000
 20
0.00000000
 30
0.00000000
  3
TRIANGLEFILL
  1

  0
LINE
  5
8E
  8
0
   6
CONTINUOUS
 10
    0.00
 20
    0.50
 30
    0.00
 11
    0.50
 21
   -0.50
 31
    0.00
  0
LINE
  5
8F
  8
0
   6
CONTINUOUS
 10
    0.50
 20
   -0.50
 30
    0.00
 11
   -0.50
 21
   -0.50
 31
    0.00
  0
LINE
  5
90
  8
0
   6
CONTINUOUS
 10
   -0.50
 20
   -0.50
 30
    0.00
 11
    0.00
 21
    0.50
 31
    0.00
  0
ATTDEF
  5
91
  8
0
  6
CONTINUOUS
 10
    0.38
 20
    0.38
 30
    0.00
 40
10.00
  1

  3
ENTER LABEL
  2
LABEL
 70
0
  0
ENDBLK
  5
92
  8
0
  0
BLOCK
  8
0
  2
TREE01
 70
2
 10
0.00000000
 20
0.00000000
 30
0.00000000
  3
TREE01
  1

  0
LINE
  5
93
  8
0
   6
CONTINUOUS
 10
    0.00
 20
    0.00
 30
    0.00
 11
    0.04
 21
    0.21
 31
    0.00
  0
LINE
  5
94
  8
0
   6
CONTINUOUS
 10
    0.04
 20
    0.21
 30
    0.00
 11
   -0.08
 21
    0.44
 31
    0.00
  0
LINE
  5
95
  8
0
   6
CONTINUOUS
 10
   -0.05
 20
    0.39
 30
    0.00
 11
   -0.04
 21
    0.49
 31
    0.00
  0
LINE
  5
96
  8
0
   6
CONTINUOUS
 10
    0.00
 20
    0.28
 30
    0.00
 11
    0.03
 21
    0.40
 31
    0.00
  0
LINE
  5
97
  8
0
   6
CONTINUOUS
 10
    0.03
 20
    0.40
 30
    0.00
 11
    0.00
 21
    0.43
 31
    0.00
  0
LINE
  5
98
  8
0
   6
CONTINUOUS
 10
    0.03
 20
    0.40
 30
    0.00
 11
    0.07
 21
    0.46
 31
    0.00
  0
LINE
  5
99
  8
0
   6
CONTINUOUS
 10
    0.04
 20
    0.21
 30
    0.00
 11
    0.16
 21
    0.32
 31
    0.00
  0
LINE
  5
9A
  8
0
   6
CONTINUOUS
 10
    0.16
 20
    0.32
 30
    0.00
 11
    0.16
 21
    0.44
 31
    0.00
  0
LINE
  5
9B
  8
0
   6
CONTINUOUS
 10
    0.00
 20
    0.00
 30
    0.00
 11
    0.21
 21
    0.18
 31
    0.00
  0
LINE
  5
9C
  8
0
   6
CONTINUOUS
 10
    0.21
 20
    0.18
 30
    0.00
 11
    0.29
 21
    0.33
 31
    0.00
  0
LINE
  5
9D
  8
0
   6
CONTINUOUS
 10
    0.21
 20
    0.18
 30
    0.00
 11
    0.43
 21
    0.24
 31
    0.00
  0
LINE
  5
9E
  8
0
   6
CONTINUOUS
 10
    0.00
 20
    0.00
 30
    0.00
 11
    0.28
 21
    0.00
 31
    0.00
  0
LINE
  5
9F
  8
0
   6
CONTINUOUS
 10
    0.28
 20
    0.00
 30
    0.00
 11
    0.44
 21
    0.06
 31
    0.00
  0
LINE
  5
A0
  8
0
   6
CONTINUOUS
 10
    0.27
 20
    0.00
 30
    0.00
 11
    0.49
 21
   -0.09
 31
    0.00
  0
LINE
  5
A1
  8
0
   6
CONTINUOUS
 10
    0.00
 20
    0.00
 30
    0.00
 11
    0.16
 21
   -0.14
 31
    0.00
  0
LINE
  5
A2
  8
0
   6
CONTINUOUS
 10
    0.16
 20
   -0.14
 30
    0.00
 11
    0.36
 21
   -0.15
 31
    0.00
  0
LINE
  5
A3
  8
0
   6
CONTINUOUS
 10
    0.36
 20
   -0.15
 30
    0.00
 11
    0.44
 21
   -0.22
 31
    0.00
  0
LINE
  5
A4
  8
0
   6
CONTINUOUS
 10
    0.36
 20
   -0.15
 30
    0.00
 11
    0.42
 21
   -0.15
 31
    0.00
  0
LINE
  5
A5
  8
0
   6
CONTINUOUS
 10
    0.24
 20
   -0.14
 30
    0.00
 11
    0.34
 21
   -0.22
 31
    0.00
  0
LINE
  5
A6
  8
0
   6
CONTINUOUS
 10
    0.34
 20
   -0.22
 30
    0.00
 11
    0.37
 21
   -0.22
 31
    0.00
  0
LINE
  5
A7
  8
0
   6
CONTINUOUS
 10
    0.34
 20
   -0.22
 30
    0.00
 11
    0.36
 21
   -0.29
 31
    0.00
  0
LINE
  5
A8
  8
0
   6
CONTINUOUS
 10
    0.16
 20
   -0.14
 30
    0.00
 11
    0.20
 21
   -0.30
 31
    0.00
  0
LINE
  5
A9
  8
0
   6
CONTINUOUS
 10
    0.20
 20
   -0.30
 30
    0.00
 11
    0.30
 21
   -0.36
 31
    0.00
  0
LINE
  5
AA
  8
0
   6
CONTINUOUS
 10
    0.20
 20
   -0.30
 30
    0.00
 11
    0.19
 21
   -0.36
 31
    0.00
  0
LINE
  5
AB
  8
0
   6
CONTINUOUS
 10
    0.00
 20
    0.00
 30
    0.00
 11
    0.05
 21
   -0.27
 31
    0.00
  0
LINE
  5
AC
  8
0
   6
CONTINUOUS
 10
    0.05
 20
   -0.27
 30
    0.00
 11
    0.14
 21
   -0.42
 31
    0.00
  0
LINE
  5
AD
  8
0
   6
CONTINUOUS
 10
    0.05
 20
   -0.27
 30
    0.00
 11
   -0.01
 21
   -0.50
 31
    0.00
  0
LINE
  5
AE
  8
0
   6
CONTINUOUS
 10
    0.00
 20
    0.00
 30
    0.00
 11
   -0.14
 21
   -0.24
 31
    0.00
  0
LINE
  5
AF
  8
0
   6
CONTINUOUS
 10
   -0.14
 20
   -0.24
 30
    0.00
 11
   -0.17
 21
   -0.41
 31
    0.00
  0
LINE
  5
B0
  8
0
   6
CONTINUOUS
 10
   -0.14
 20
   -0.24
 30
    0.00
 11
   -0.33
 21
   -0.38
 31
    0.00
  0
LINE
  5
B1
  8
0
   6
CONTINUOUS
 10
    0.00
 20
    0.00
 30
    0.00
 11
   -0.20
 21
   -0.07
 31
    0.00
  0
LINE
  5
B2
  8
0
   6
CONTINUOUS
 10
   -0.20
 20
   -0.07
 30
    0.00
 11
   -0.31
 21
   -0.24
 31
    0.00
  0
LINE
  5
B3
  8
0
   6
CONTINUOUS
 10
   -0.31
 20
   -0.24
 30
    0.00
 11
   -0.41
 21
   -0.28
 31
    0.00
  0
LINE
  5
B4
  8
0
   6
CONTINUOUS
 10
   -0.31
 20
   -0.24
 30
    0.00
 11
   -0.34
 21
   -0.29
 31
    0.00
  0
LINE
  5
B5
  8
0
   6
CONTINUOUS
 10
   -0.24
 20
   -0.14
 30
    0.00
 11
   -0.36
 21
   -0.18
 31
    0.00
  0
LINE
  5
B6
  8
0
   6
CONTINUOUS
 10
   -0.36
 20
   -0.18
 30
    0.00
 11
   -0.37
 21
   -0.21
 31
    0.00
  0
LINE
  5
B7
  8
0
   6
CONTINUOUS
 10
   -0.36
 20
   -0.18
 30
    0.00
 11
   -0.43
 21
   -0.17
 31
    0.00
  0
LINE
  5
B8
  8
0
   6
CONTINUOUS
 10
   -0.20
 20
   -0.07
 30
    0.00
 11
   -0.36
 21
   -0.02
 31
    0.00
  0
LINE
  5
B9
  8
0
   6
CONTINUOUS
 10
   -0.36
 20
   -0.02
 30
    0.00
 11
   -0.46
 21
   -0.08
 31
    0.00
  0
LINE
  5
BA
  8
0
   6
CONTINUOUS
 10
   -0.36
 20
   -0.02
 30
    0.00
 11
   -0.40
 21
    0.02
 31
    0.00
  0
LINE
  5
BB
  8
0
   6
CONTINUOUS
 10
    0.00
 20
    0.00
 30
    0.00
 11
   -0.26
 21
    0.09
 31
    0.00
  0
LINE
  5
BC
  8
0
   6
CONTINUOUS
 10
   -0.26
 20
    0.09
 30
    0.00
 11
   -0.43
 21
    0.09
 31
    0.00
  0
LINE
  5
BD
  8
0
   6
CONTINUOUS
 10
   -0.26
 20
    0.09
 30
    0.00
 11
   -0.43
 21
    0.26
 31
    0.00
  0
LINE
  5
BE
  8
0
   6
CONTINUOUS
 10
    0.00
 20
    0.00
 30
    0.00
 11
   -0.14
 21
    0.23
 31
    0.00
  0
LINE
  5
BF
  8
0
   6
CONTINUOUS
 10
   -0.14
 20
    0.23
 30
    0.00
 11
   -0.27
 21
    0.35
 31
    0.00
  0
LINE
  5
C0
  8
0
   6
CONTINUOUS
 10
   -0.14
 20
    0.24
 30
    0.00
 11
   -0.16
 21
    0.47
 31
    0.00
  0
ATTDEF
  5
C1
  8
0
  6
CONTINUOUS
 10
    0.38
 20
    0.38
 30
    0.00
 40
10.00
  1

  3
ENTER LABEL
  2
LABEL
 70
0
  0
ENDBLK
  5
C2
  8
0
  0
BLOCK
  8
0
  2
TREE02
 70
2
 10
0.00000000
 20
0.00000000
 30
0.00000000
  3
TREE02
  1

  0
LINE
  5
C3
  8
0
   6
CONTINUOUS
 10
    0.00
 20
    0.50
 30
    0.00
 11
    0.03
 21
    0.14
 31
    0.00
  0
LINE
  5
C4
  8
0
   6
CONTINUOUS
 10
    0.03
 20
    0.14
 30
    0.00
 11
    0.20
 21
    0.46
 31
    0.00
  0
LINE
  5
C5
  8
0
   6
CONTINUOUS
 10
    0.20
 20
    0.46
 30
    0.00
 11
    0.08
 21
    0.11
 31
    0.00
  0
LINE
  5
C6
  8
0
   6
CONTINUOUS
 10
    0.08
 20
    0.11
 30
    0.00
 11
    0.37
 21
    0.34
 31
    0.00
  0
LINE
  5
C7
  8
0
   6
CONTINUOUS
 10
    0.37
 20
    0.34
 30
    0.00
 11
    0.12
 21
    0.07
 31
    0.00
  0
LINE
  5
C8
  8
0
   6
CONTINUOUS
 10
    0.12
 20
    0.07
 30
    0.00
 11
    0.48
 21
    0.16
 31
    0.00
  0
LINE
  5
C9
  8
0
   6
CONTINUOUS
 10
    0.48
 20
    0.16
 30
    0.00
 11
    0.14
 21
    0.02
 31
    0.00
  0
LINE
  5
CA
  8
0
   6
CONTINUOUS
 10
    0.14
 20
    0.02
 30
    0.00
 11
    0.50
 21
   -0.05
 31
    0.00
  0
LINE
  5
CB
  8
0
   6
CONTINUOUS
 10
    0.50
 20
   -0.05
 30
    0.00
 11
    0.13
 21
   -0.04
 31
    0.00
  0
LINE
  5
CC
  8
0
   6
CONTINUOUS
 10
    0.13
 20
   -0.04
 30
    0.00
 11
    0.43
 21
   -0.25
 31
    0.00
  0
LINE
  5
CD
  8
0
   6
CONTINUOUS
 10
    0.43
 20
   -0.25
 30
    0.00
 11
    0.10
 21
   -0.09
 31
    0.00
  0
LINE
  5
CE
  8
0
   6
CONTINUOUS
 10
    0.10
 20
   -0.09
 30
    0.00
 11
    0.29
 21
   -0.41
 31
    0.00
  0
LINE
  5
CF
  8
0
   6
CONTINUOUS
 10
    0.29
 20
   -0.41
 30
    0.00
 11
    0.06
 21
   -0.13
 31
    0.00
  0
LINE
  5
D0
  8
0
   6
CONTINUOUS
 10
    0.06
 20
   -0.13
 30
    0.00
 11
    0.10
 21
   -0.49
 31
    0.00
  0
LINE
  5
D1
  8
0
   6
CONTINUOUS
 10
    0.10
 20
   -0.49
 30
    0.00
 11
    0.00
 21
   -0.14
 31
    0.00
  0
LINE
  5
D2
  8
0
   6
CONTINUOUS
 10
    0.00
 20
   -0.14
 30
    0.00
 11
   -0.10
 21
   -0.49
 31
    0.00
  0
LINE
  5
D3
  8
0
   6
CONTINUOUS
 10
   -0.10
 20
   -0.49
 30
    0.00
 11
   -0.06
 21
   -0.13
 31
    0.00
  0
LINE
  5
D4
  8
0
   6
CONTINUOUS
 10
   -0.06
 20
   -0.13
 30
    0.00
 11
   -0.29
 21
   -0.41
 31
    0.00
  0
LINE
  5
D5
  8
0
   6
CONTINUOUS
 10
   -0.29
 20
   -0.41
 30
    0.00
 11
   -0.10
 21
   -0.09
 31
    0.00
  0
LINE
  5
D6
  8
0
   6
CONTINUOUS
 10
   -0.10
 20
   -0.09
 30
    0.00
 11
   -0.43
 21
   -0.25
 31
    0.00
  0
LINE
  5
D7
  8
0
   6
CONTINUOUS
 10
   -0.43
 20
   -0.25
 30
    0.00
 11
   -0.13
 21
   -0.04
 31
    0.00
  0
LINE
  5
D8
  8
0
   6
CONTINUOUS
 10
   -0.13
 20
   -0.04
 30
    0.00
 11
   -0.50
 21
   -0.05
 31
    0.00
  0
LINE
  5
D9
  8
0
   6
CONTINUOUS
 10
   -0.50
 20
   -0.05
 30
    0.00
 11
   -0.14
 21
    0.02
 31
    0.00
  0
LINE
  5
DA
  8
0
   6
CONTINUOUS
 10
   -0.14
 20
    0.02
 30
    0.00
 11
   -0.48
 21
    0.16
 31
    0.00
  0
LINE
  5
DB
  8
0
   6
CONTINUOUS
 10
   -0.48
 20
    0.16
 30
    0.00
 11
   -0.12
 21
    0.07
 31
    0.00
  0
LINE
  5
DC
  8
0
   6
CONTINUOUS
 10
   -0.12
 20
    0.07
 30
    0.00
 11
   -0.37
 21
    0.34
 31
    0.00
  0
LINE
  5
DD
  8
0
   6
CONTINUOUS
 10
   -0.37
 20
    0.34
 30
    0.00
 11
   -0.08
 21
    0.11
 31
    0.00
  0
LINE
  5
DE
  8
0
   6
CONTINUOUS
 10
   -0.08
 20
    0.11
 30
    0.00
 11
   -0.20
 21
    0.46
 31
    0.00
  0
LINE
  5
DF
  8
0
   6
CONTINUOUS
 10
   -0.20
 20
    0.46
 30
    0.00
 11
   -0.03
 21
    0.14
 31
    0.00
  0
LINE
  5
E0
  8
0
   6
CONTINUOUS
 10
   -0.03
 20
    0.14
 30
    0.00
 11
    0.00
 21
    0.50
 31
    0.00
  0
LINE
  5
E1
  8
0
   6
CONTINUOUS
 10
   -0.01
 20
    0.00
 30
    0.00
 11
    0.00
 21
    0.01
 31
    0.00
  0
LINE
  5
E2
  8
0
   6
CONTINUOUS
 10
    0.00
 20
    0.01
 30
    0.00
 11
    0.01
 21
    0.00
 31
    0.00
  0
LINE
  5
E3
  8
0
   6
CONTINUOUS
 10
    0.01
 20
    0.00
 30
    0.00
 11
    0.00
 21
   -0.01
 31
    0.00
  0
LINE
  5
E4
  8
0
   6
CONTINUOUS
 10
    0.00
 20
   -0.01
 30
    0.00
 11
   -0.01
 21
    0.00
 31
    0.00
  0
ATTDEF
  5
E5
  8
0
  6
CONTINUOUS
 10
    0.38
 20
    0.38
 30
    0.00
 40
10.00
  1

  3
ENTER LABEL
  2
LABEL
 70
0
  0
ENDBLK
  5
E6
  8
0
  0
BLOCK
  8
0
  2
TREE03
 70
2
 10
0.00000000
 20
0.00000000
 30
0.00000000
  3
TREE03
  1

  0
LINE
  5
E7
  8
0
   6
CONTINUOUS
 10
   -0.47
 20
    0.18
 30
    0.00
 11
    0.00
 21
    0.00
 31
    0.00
  0
LINE
  5
E8
  8
0
   6
CONTINUOUS
 10
    0.00
 20
    0.00
 30
    0.00
 11
   -0.43
 21
    0.26
 31
    0.00
  0
LINE
  5
E9
  8
0
   6
CONTINUOUS
 10
    0.00
 20
    0.00
 30
    0.00
 11
   -0.50
 21
    0.06
 31
    0.00
  0
LINE
  5
EA
  8
0
   6
CONTINUOUS
 10
   -0.50
 20
   -0.03
 30
    0.00
 11
    0.00
 21
    0.00
 31
    0.00
  0
LINE
  5
EB
  8
0
   6
CONTINUOUS
 10
    0.00
 20
    0.00
 30
    0.00
 11
   -0.48
 21
   -0.15
 31
    0.00
  0
LINE
  5
EC
  8
0
   6
CONTINUOUS
 10
   -0.45
 20
   -0.23
 30
    0.00
 11
    0.00
 21
    0.00
 31
    0.00
  0
LINE
  5
ED
  8
0
   6
CONTINUOUS
 10
    0.00
 20
    0.00
 30
    0.00
 11
   -0.38
 21
   -0.33
 31
    0.00
  0
LINE
  5
EE
  8
0
   6
CONTINUOUS
 10
   -0.31
 20
   -0.39
 30
    0.00
 11
    0.00
 21
    0.00
 31
    0.00
  0
LINE
  5
EF
  8
0
   6
CONTINUOUS
 10
    0.00
 20
    0.00
 30
    0.00
 11
   -0.21
 21
   -0.45
 31
    0.00
  0
LINE
  5
F0
  8
0
   6
CONTINUOUS
 10
   -0.13
 20
   -0.49
 30
    0.00
 11
    0.00
 21
    0.00
 31
    0.00
  0
LINE
  5
F1
  8
0
   6
CONTINUOUS
 10
    0.00
 20
    0.00
 30
    0.00
 11
   -0.01
 21
   -0.50
 31
    0.00
  0
LINE
  5
F2
  8
0
   6
CONTINUOUS
 10
    0.08
 20
   -0.49
 30
    0.00
 11
    0.00
 21
    0.00
 31
    0.00
  0
LINE
  5
F3
  8
0
   6
CONTINUOUS
 10
    0.00
 20
    0.00
 30
    0.00
 11
    0.19
 21
   -0.46
 31
    0.00
  0
LINE
  5
F4
  8
0
   6
CONTINUOUS
 10
    0.28
 20
   -0.42
 30
    0.00
 11
    0.00
 21
    0.00
 31
    0.00
  0
LINE
  5
F5
  8
0
   6
CONTINUOUS
 10
    0.00
 20
    0.00
 30
    0.00
 11
    0.37
 21
   -0.34
 31
    0.00
  0
LINE
  5
F6
  8
0
   6
CONTINUOUS
 10
    0.42
 20
   -0.27
 30
    0.00
 11
    0.00
 21
    0.00
 31
    0.00
  0
LINE
  5
F7
  8
0
   6
CONTINUOUS
 10
    0.00
 20
    0.00
 30
    0.00
 11
    0.47
 21
   -0.16
 31
    0.00
  0
LINE
  5
F8
  8
0
   6
CONTINUOUS
 10
    0.50
 20
   -0.08
 30
    0.00
 11
    0.00
 21
    0.00
 31
    0.00
  0
LINE
  5
F9
  8
0
   6
CONTINUOUS
 10
    0.00
 20
    0.00
 30
    0.00
 11
    0.50
 21
    0.04
 31
    0.00
  0
LINE
  5
FA
  8
0
   6
CONTINUOUS
 10
    0.48
 20
    0.13
 30
    0.00
 11
    0.00
 21
    0.00
 31
    0.00
  0
LINE
  5
FB
  8
0
   6
CONTINUOUS
 10
    0.00
 20
    0.00
 30
    0.00
 11
    0.44
 21
    0.24
 31
    0.00
  0
LINE
  5
FC
  8
0
   6
CONTINUOUS
 10
    0.39
 20
    0.32
 30
    0.00
 11
    0.00
 21
    0.00
 31
    0.00
  0
LINE
  5
FD
  8
0
   6
CONTINUOUS
 10
    0.00
 20
    0.00
 30
    0.00
 11
    0.30
 21
    0.40
 31
    0.00
  0
LINE
  5
FE
  8
0
   6
CONTINUOUS
 10
    0.22
 20
    0.45
 30
    0.00
 11
    0.00
 21
    0.00
 31
    0.00
  0
LINE
  5
FF
  8
0
   6
CONTINUOUS
 10
    0.00
 20
    0.00
 30
    0.00
 11
    0.11
 21
    0.49
 31
    0.00
  0
LINE
  5
100
  8
0
   6
CONTINUOUS
 10
    0.02
 20
    0.50
 30
    0.00
 11
    0.00
 21
    0.00
 31
    0.00
  0
LINE
  5
101
  8
0
   6
CONTINUOUS
 10
    0.00
 20
    0.00
 30
    0.00
 11
   -0.09
 21
    0.49
 31
    0.00
  0
LINE
  5
102
  8
0
   6
CONTINUOUS
 10
   -0.18
 20
    0.47
 30
    0.00
 11
    0.00
 21
    0.00
 31
    0.00
  0
LINE
  5
103
  8
0
   6
CONTINUOUS
 10
    0.00
 20
    0.00
 30
    0.00
 11
   -0.29
 21
    0.41
 31
    0.00
  0
LINE
  5
104
  8
0
   6
CONTINUOUS
 10
   -0.36
 20
    0.35
 30
    0.00
 11
    0.00
 21
    0.00
 31
    0.00
  0
LINE
  5
105
  8
0
   6
CONTINUOUS
 10
   -0.36
 20
    0.35
 30
    0.00
 11
   -0.33
 21
    0.38
 31
    0.00
  0
LINE
  5
106
  8
0
   6
CONTINUOUS
 10
   -0.33
 20
    0.38
 30
    0.00
 11
   -0.29
 21
    0.41
 31
    0.00
  0
LINE
  5
107
  8
0
   6
CONTINUOUS
 10
   -0.18
 20
    0.47
 30
    0.00
 11
   -0.15
 21
    0.48
 31
    0.00
  0
LINE
  5
108
  8
0
   6
CONTINUOUS
 10
   -0.15
 20
    0.48
 30
    0.00
 11
   -0.09
 21
    0.49
 31
    0.00
  0
LINE
  5
109
  8
0
   6
CONTINUOUS
 10
    0.02
 20
    0.50
 30
    0.00
 11
    0.06
 21
    0.50
 31
    0.00
  0
LINE
  5
10A
  8
0
   6
CONTINUOUS
 10
    0.06
 20
    0.50
 30
    0.00
 11
    0.11
 21
    0.49
 31
    0.00
  0
LINE
  5
10B
  8
0
   6
CONTINUOUS
 10
    0.22
 20
    0.45
 30
    0.00
 11
    0.26
 21
    0.43
 31
    0.00
  0
LINE
  5
10C
  8
0
   6
CONTINUOUS
 10
    0.26
 20
    0.43
 30
    0.00
 11
    0.30
 21
    0.40
 31
    0.00
  0
LINE
  5
10D
  8
0
   6
CONTINUOUS
 10
    0.39
 20
    0.32
 30
    0.00
 11
    0.41
 21
    0.29
 31
    0.00
  0
LINE
  5
10E
  8
0
   6
CONTINUOUS
 10
    0.41
 20
    0.29
 30
    0.00
 11
    0.44
 21
    0.24
 31
    0.00
  0
LINE
  5
10F
  8
0
   6
CONTINUOUS
 10
    0.48
 20
    0.13
 30
    0.00
 11
    0.49
 21
    0.10
 31
    0.00
  0
LINE
  5
110
  8
0
   6
CONTINUOUS
 10
    0.49
 20
    0.10
 30
    0.00
 11
    0.50
 21
    0.04
 31
    0.00
  0
LINE
  5
111
  8
0
   6
CONTINUOUS
 10
    0.50
 20
   -0.08
 30
    0.00
 11
    0.49
 21
   -0.11
 31
    0.00
  0
LINE
  5
112
  8
0
   6
CONTINUOUS
 10
    0.49
 20
   -0.11
 30
    0.00
 11
    0.47
 21
   -0.16
 31
    0.00
  0
LINE
  5
113
  8
0
   6
CONTINUOUS
 10
    0.42
 20
   -0.27
 30
    0.00
 11
    0.40
 21
   -0.30
 31
    0.00
  0
LINE
  5
114
  8
0
   6
CONTINUOUS
 10
    0.40
 20
   -0.30
 30
    0.00
 11
    0.37
 21
   -0.34
 31
    0.00
  0
LINE
  5
115
  8
0
   6
CONTINUOUS
 10
    0.28
 20
   -0.42
 30
    0.00
 11
    0.24
 21
   -0.44
 31
    0.00
  0
LINE
  5
116
  8
0
   6
CONTINUOUS
 10
    0.24
 20
   -0.44
 30
    0.00
 11
    0.19
 21
   -0.46
 31
    0.00
  0
LINE
  5
117
  8
0
   6
CONTINUOUS
 10
    0.08
 20
   -0.49
 30
    0.00
 11
    0.04
 21
   -0.50
 31
    0.00
  0
LINE
  5
118
  8
0
   6
CONTINUOUS
 10
    0.04
 20
   -0.50
 30
    0.00
 11
   -0.01
 21
   -0.50
 31
    0.00
  0
LINE
  5
119
  8
0
   6
CONTINUOUS
 10
   -0.13
 20
   -0.49
 30
    0.00
 11
   -0.16
 21
   -0.47
 31
    0.00
  0
LINE
  5
11A
  8
0
   6
CONTINUOUS
 10
   -0.16
 20
   -0.47
 30
    0.00
 11
   -0.21
 21
   -0.45
 31
    0.00
  0
LINE
  5
11B
  8
0
   6
CONTINUOUS
 10
   -0.31
 20
   -0.39
 30
    0.00
 11
   -0.34
 21
   -0.37
 31
    0.00
  0
LINE
  5
11C
  8
0
   6
CONTINUOUS
 10
   -0.34
 20
   -0.37
 30
    0.00
 11
   -0.38
 21
   -0.33
 31
    0.00
  0
LINE
  5
11D
  8
0
   6
CONTINUOUS
 10
   -0.45
 20
   -0.23
 30
    0.00
 11
   -0.46
 21
   -0.20
 31
    0.00
  0
LINE
  5
11E
  8
0
   6
CONTINUOUS
 10
   -0.46
 20
   -0.20
 30
    0.00
 11
   -0.48
 21
   -0.15
 31
    0.00
  0
LINE
  5
11F
  8
0
   6
CONTINUOUS
 10
   -0.50
 20
   -0.03
 30
    0.00
 11
   -0.50
 21
    0.01
 31
    0.00
  0
LINE
  5
120
  8
0
   6
CONTINUOUS
 10
   -0.50
 20
    0.01
 30
    0.00
 11
   -0.50
 21
    0.06
 31
    0.00
  0
LINE
  5
121
  8
0
   6
CONTINUOUS
 10
   -0.47
 20
    0.18
 30
    0.00
 11
   -0.45
 21
    0.21
 31
    0.00
  0
LINE
  5
122
  8
0
   6
CONTINUOUS
 10
   -0.45
 20
    0.21
 30
    0.00
 11
   -0.43
 21
    0.26
 31
    0.00
  0
ATTDEF
  5
123
  8
0
  6
CONTINUOUS
 10
    0.38
 20
    0.38
 30
    0.00
 40
10.00
  1

  3
ENTER LABEL
  2
LABEL
 70
0
  0
ENDBLK
  5
124
  8
0
  0
BLOCK
  8
0
  2
TREE04
 70
2
 10
0.00000000
 20
0.00000000
 30
0.00000000
  3
TREE04
  1

  0
LINE
  5
125
  8
0
   6
CONTINUOUS
 10
    0.00
 20
    0.00
 30
    0.00
 11
   -0.06
 21
    0.06
 31
    0.00
  0
LINE
  5
126
  8
0
   6
CONTINUOUS
 10
   -0.06
 20
    0.06
 30
    0.00
 11
   -0.12
 21
    0.17
 31
    0.00
  0
LINE
  5
127
  8
0
   6
CONTINUOUS
 10
   -0.12
 20
    0.17
 30
    0.00
 11
   -0.13
 21
    0.25
 31
    0.00
  0
LINE
  5
128
  8
0
   6
CONTINUOUS
 10
   -0.13
 20
    0.25
 30
    0.00
 11
   -0.13
 21
    0.32
 31
    0.00
  0
LINE
  5
129
  8
0
   6
CONTINUOUS
 10
   -0.13
 20
    0.32
 30
    0.00
 11
   -0.11
 21
    0.38
 31
    0.00
  0
LINE
  5
12A
  8
0
   6
CONTINUOUS
 10
   -0.11
 20
    0.38
 30
    0.00
 11
   -0.08
 21
    0.43
 31
    0.00
  0
LINE
  5
12B
  8
0
   6
CONTINUOUS
 10
   -0.08
 20
    0.43
 30
    0.00
 11
   -0.05
 21
    0.48
 31
    0.00
  0
LINE
  5
12C
  8
0
   6
CONTINUOUS
 10
   -0.05
 20
    0.48
 30
    0.00
 11
   -0.03
 21
    0.50
 31
    0.00
  0
LINE
  5
12D
  8
0
   6
CONTINUOUS
 10
    0.00
 20
    0.00
 30
    0.00
 11
    0.01
 21
    0.09
 31
    0.00
  0
LINE
  5
12E
  8
0
   6
CONTINUOUS
 10
    0.01
 20
    0.09
 30
    0.00
 11
    0.03
 21
    0.15
 31
    0.00
  0
LINE
  5
12F
  8
0
   6
CONTINUOUS
 10
    0.03
 20
    0.15
 30
    0.00
 11
    0.06
 21
    0.20
 31
    0.00
  0
LINE
  5
130
  8
0
   6
CONTINUOUS
 10
    0.06
 20
    0.20
 30
    0.00
 11
    0.11
 21
    0.25
 31
    0.00
  0
LINE
  5
131
  8
0
   6
CONTINUOUS
 10
    0.11
 20
    0.25
 30
    0.00
 11
    0.17
 21
    0.30
 31
    0.00
  0
LINE
  5
132
  8
0
   6
CONTINUOUS
 10
    0.17
 20
    0.30
 30
    0.00
 11
    0.23
 21
    0.32
 31
    0.00
  0
LINE
  5
133
  8
0
   6
CONTINUOUS
 10
    0.23
 20
    0.32
 30
    0.00
 11
    0.30
 21
    0.34
 31
    0.00
  0
LINE
  5
134
  8
0
   6
CONTINUOUS
 10
    0.30
 20
    0.34
 30
    0.00
 11
    0.35
 21
    0.33
 31
    0.00
  0
LINE
  5
135
  8
0
   6
CONTINUOUS
 10
    0.35
 20
    0.33
 30
    0.00
 11
    0.38
 21
    0.33
 31
    0.00
  0
LINE
  5
136
  8
0
   6
CONTINUOUS
 10
    0.00
 20
    0.00
 30
    0.00
 11
    0.08
 21
    0.05
 31
    0.00
  0
LINE
  5
137
  8
0
   6
CONTINUOUS
 10
    0.08
 20
    0.05
 30
    0.00
 11
    0.14
 21
    0.07
 31
    0.00
  0
LINE
  5
138
  8
0
   6
CONTINUOUS
 10
    0.14
 20
    0.07
 30
    0.00
 11
    0.20
 21
    0.08
 31
    0.00
  0
LINE
  5
139
  8
0
   6
CONTINUOUS
 10
    0.20
 20
    0.08
 30
    0.00
 11
    0.27
 21
    0.08
 31
    0.00
  0
LINE
  5
13A
  8
0
   6
CONTINUOUS
 10
    0.27
 20
    0.08
 30
    0.00
 11
    0.34
 21
    0.05
 31
    0.00
  0
LINE
  5
13B
  8
0
   6
CONTINUOUS
 10
    0.34
 20
    0.05
 30
    0.00
 11
    0.40
 21
    0.02
 31
    0.00
  0
LINE
  5
13C
  8
0
   6
CONTINUOUS
 10
    0.40
 20
    0.02
 30
    0.00
 11
    0.45
 21
   -0.02
 31
    0.00
  0
LINE
  5
13D
  8
0
   6
CONTINUOUS
 10
    0.45
 20
   -0.02
 30
    0.00
 11
    0.48
 21
   -0.06
 31
    0.00
  0
LINE
  5
13E
  8
0
   6
CONTINUOUS
 10
    0.48
 20
   -0.06
 30
    0.00
 11
    0.49
 21
   -0.09
 31
    0.00
  0
LINE
  5
13F
  8
0
   6
CONTINUOUS
 10
    0.00
 20
    0.00
 30
    0.00
 11
    0.09
 21
   -0.03
 31
    0.00
  0
LINE
  5
140
  8
0
   6
CONTINUOUS
 10
    0.09
 20
   -0.03
 30
    0.00
 11
    0.14
 21
   -0.06
 31
    0.00
  0
LINE
  5
141
  8
0
   6
CONTINUOUS
 10
    0.14
 20
   -0.06
 30
    0.00
 11
    0.19
 21
   -0.10
 31
    0.00
  0
LINE
  5
142
  8
0
   6
CONTINUOUS
 10
    0.19
 20
   -0.10
 30
    0.00
 11
    0.23
 21
   -0.16
 31
    0.00
  0
LINE
  5
143
  8
0
   6
CONTINUOUS
 10
    0.23
 20
   -0.16
 30
    0.00
 11
    0.25
 21
   -0.23
 31
    0.00
  0
LINE
  5
144
  8
0
   6
CONTINUOUS
 10
    0.25
 20
   -0.23
 30
    0.00
 11
    0.26
 21
   -0.29
 31
    0.00
  0
LINE
  5
145
  8
0
   6
CONTINUOUS
 10
    0.26
 20
   -0.29
 30
    0.00
 11
    0.26
 21
   -0.36
 31
    0.00
  0
LINE
  5
146
  8
0
   6
CONTINUOUS
 10
    0.26
 20
   -0.36
 30
    0.00
 11
    0.25
 21
   -0.40
 31
    0.00
  0
LINE
  5
147
  8
0
   6
CONTINUOUS
 10
    0.25
 20
   -0.40
 30
    0.00
 11
    0.24
 21
   -0.44
 31
    0.00
  0
LINE
  5
148
  8
0
   6
CONTINUOUS
 10
    0.00
 20
    0.00
 30
    0.00
 11
    0.03
 21
   -0.08
 31
    0.00
  0
LINE
  5
149
  8
0
   6
CONTINUOUS
 10
    0.03
 20
   -0.08
 30
    0.00
 11
    0.04
 21
   -0.15
 31
    0.00
  0
LINE
  5
14A
  8
0
   6
CONTINUOUS
 10
    0.04
 20
   -0.15
 30
    0.00
 11
    0.03
 21
   -0.21
 31
    0.00
  0
LINE
  5
14B
  8
0
   6
CONTINUOUS
 10
    0.03
 20
   -0.21
 30
    0.00
 11
    0.01
 21
   -0.28
 31
    0.00
  0
LINE
  5
14C
  8
0
   6
CONTINUOUS
 10
    0.01
 20
   -0.28
 30
    0.00
 11
   -0.02
 21
   -0.34
 31
    0.00
  0
LINE
  5
14D
  8
0
   6
CONTINUOUS
 10
   -0.02
 20
   -0.34
 30
    0.00
 11
   -0.06
 21
   -0.39
 31
    0.00
  0
LINE
  5
14E
  8
0
   6
CONTINUOUS
 10
   -0.06
 20
   -0.39
 30
    0.00
 11
   -0.12
 21
   -0.43
 31
    0.00
  0
LINE
  5
14F
  8
0
   6
CONTINUOUS
 10
   -0.12
 20
   -0.43
 30
    0.00
 11
   -0.17
 21
   -0.45
 31
    0.00
  0
LINE
  5
150
  8
0
   6
CONTINUOUS
 10
   -0.17
 20
   -0.45
 30
    0.00
 11
   -0.19
 21
   -0.46
 31
    0.00
  0
LINE
  5
151
  8
0
   6
CONTINUOUS
 10
    0.00
 20
    0.00
 30
    0.00
 11
   -0.04
 21
   -0.07
 31
    0.00
  0
LINE
  5
152
  8
0
   6
CONTINUOUS
 10
   -0.04
 20
   -0.07
 30
    0.00
 11
   -0.10
 21
   -0.12
 31
    0.00
  0
LINE
  5
153
  8
0
   6
CONTINUOUS
 10
   -0.10
 20
   -0.12
 30
    0.00
 11
   -0.15
 21
   -0.16
 31
    0.00
  0
LINE
  5
154
  8
0
   6
CONTINUOUS
 10
   -0.15
 20
   -0.16
 30
    0.00
 11
   -0.21
 21
   -0.18
 31
    0.00
  0
LINE
  5
155
  8
0
   6
CONTINUOUS
 10
   -0.21
 20
   -0.18
 30
    0.00
 11
   -0.28
 21
   -0.19
 31
    0.00
  0
LINE
  5
156
  8
0
   6
CONTINUOUS
 10
   -0.28
 20
   -0.19
 30
    0.00
 11
   -0.34
 21
   -0.19
 31
    0.00
  0
LINE
  5
157
  8
0
   6
CONTINUOUS
 10
   -0.34
 20
   -0.19
 30
    0.00
 11
   -0.41
 21
   -0.18
 31
    0.00
  0
LINE
  5
158
  8
0
   6
CONTINUOUS
 10
   -0.41
 20
   -0.18
 30
    0.00
 11
   -0.46
 21
   -0.15
 31
    0.00
  0
LINE
  5
159
  8
0
   6
CONTINUOUS
 10
   -0.46
 20
   -0.15
 30
    0.00
 11
   -0.48
 21
   -0.14
 31
    0.00
  0
LINE
  5
15A
  8
0
   6
CONTINUOUS
 10
    0.00
 20
    0.00
 30
    0.00
 11
   -0.09
 21
   -0.01
 31
    0.00
  0
LINE
  5
15B
  8
0
   6
CONTINUOUS
 10
   -0.09
 20
   -0.01
 30
    0.00
 11
   -0.15
 21
    0.00
 31
    0.00
  0
LINE
  5
15C
  8
0
   6
CONTINUOUS
 10
   -0.15
 20
    0.00
 30
    0.00
 11
   -0.21
 21
    0.01
 31
    0.00
  0
LINE
  5
15D
  8
0
   6
CONTINUOUS
 10
   -0.21
 20
    0.01
 30
    0.00
 11
   -0.27
 21
    0.05
 31
    0.00
  0
LINE
  5
15E
  8
0
   6
CONTINUOUS
 10
   -0.27
 20
    0.05
 30
    0.00
 11
   -0.33
 21
    0.10
 31
    0.00
  0
LINE
  5
15F
  8
0
   6
CONTINUOUS
 10
   -0.33
 20
    0.10
 30
    0.00
 11
   -0.37
 21
    0.15
 31
    0.00
  0
LINE
  5
160
  8
0
   6
CONTINUOUS
 10
   -0.37
 20
    0.15
 30
    0.00
 11
   -0.39
 21
    0.21
 31
    0.00
  0
LINE
  5
161
  8
0
   6
CONTINUOUS
 10
   -0.39
 20
    0.21
 30
    0.00
 11
   -0.40
 21
    0.26
 31
    0.00
  0
LINE
  5
162
  8
0
   6
CONTINUOUS
 10
   -0.40
 20
    0.26
 30
    0.00
 11
   -0.41
 21
    0.29
 31
    0.00
  0
ATTDEF
  5
163
  8
0
  6
CONTINUOUS
 10
    0.38
 20
    0.38
 30
    0.00
 40
10.00
  1

  3
ENTER LABEL
  2
LABEL
 70
0
  0
ENDBLK
  5
164
  8
0
  0
BLOCK
  8
0
  2
TREE05
 70
2
 10
0.00000000
 20
0.00000000
 30
0.00000000
  3
TREE05
  1

  0
LINE
  5
165
  8
0
   6
CONTINUOUS
 10
    0.00
 20
    0.00
 30
    0.00
 11
   -0.06
 21
    0.06
 31
    0.00
  0
LINE
  5
166
  8
0
   6
CONTINUOUS
 10
   -0.06
 20
    0.06
 30
    0.00
 11
   -0.12
 21
    0.17
 31
    0.00
  0
LINE
  5
167
  8
0
   6
CONTINUOUS
 10
   -0.12
 20
    0.17
 30
    0.00
 11
   -0.13
 21
    0.25
 31
    0.00
  0
LINE
  5
168
  8
0
   6
CONTINUOUS
 10
   -0.13
 20
    0.25
 30
    0.00
 11
   -0.13
 21
    0.32
 31
    0.00
  0
LINE
  5
169
  8
0
   6
CONTINUOUS
 10
   -0.13
 20
    0.32
 30
    0.00
 11
   -0.11
 21
    0.38
 31
    0.00
  0
LINE
  5
16A
  8
0
   6
CONTINUOUS
 10
   -0.11
 20
    0.38
 30
    0.00
 11
   -0.08
 21
    0.43
 31
    0.00
  0
LINE
  5
16B
  8
0
   6
CONTINUOUS
 10
   -0.08
 20
    0.43
 30
    0.00
 11
   -0.05
 21
    0.48
 31
    0.00
  0
LINE
  5
16C
  8
0
   6
CONTINUOUS
 10
   -0.05
 20
    0.48
 30
    0.00
 11
   -0.03
 21
    0.50
 31
    0.00
  0
LINE
  5
16D
  8
0
   6
CONTINUOUS
 10
    0.00
 20
    0.00
 30
    0.00
 11
    0.01
 21
    0.09
 31
    0.00
  0
LINE
  5
16E
  8
0
   6
CONTINUOUS
 10
    0.01
 20
    0.09
 30
    0.00
 11
    0.03
 21
    0.15
 31
    0.00
  0
LINE
  5
16F
  8
0
   6
CONTINUOUS
 10
    0.03
 20
    0.15
 30
    0.00
 11
    0.06
 21
    0.20
 31
    0.00
  0
LINE
  5
170
  8
0
   6
CONTINUOUS
 10
    0.06
 20
    0.20
 30
    0.00
 11
    0.11
 21
    0.25
 31
    0.00
  0
LINE
  5
171
  8
0
   6
CONTINUOUS
 10
    0.11
 20
    0.25
 30
    0.00
 11
    0.17
 21
    0.30
 31
    0.00
  0
LINE
  5
172
  8
0
   6
CONTINUOUS
 10
    0.17
 20
    0.30
 30
    0.00
 11
    0.23
 21
    0.32
 31
    0.00
  0
LINE
  5
173
  8
0
   6
CONTINUOUS
 10
    0.23
 20
    0.32
 30
    0.00
 11
    0.30
 21
    0.34
 31
    0.00
  0
LINE
  5
174
  8
0
   6
CONTINUOUS
 10
    0.30
 20
    0.34
 30
    0.00
 11
    0.35
 21
    0.33
 31
    0.00
  0
LINE
  5
175
  8
0
   6
CONTINUOUS
 10
    0.35
 20
    0.33
 30
    0.00
 11
    0.38
 21
    0.33
 31
    0.00
  0
LINE
  5
176
  8
0
   6
CONTINUOUS
 10
    0.00
 20
    0.00
 30
    0.00
 11
    0.08
 21
    0.05
 31
    0.00
  0
LINE
  5
177
  8
0
   6
CONTINUOUS
 10
    0.08
 20
    0.05
 30
    0.00
 11
    0.14
 21
    0.07
 31
    0.00
  0
LINE
  5
178
  8
0
   6
CONTINUOUS
 10
    0.14
 20
    0.07
 30
    0.00
 11
    0.20
 21
    0.08
 31
    0.00
  0
LINE
  5
179
  8
0
   6
CONTINUOUS
 10
    0.20
 20
    0.08
 30
    0.00
 11
    0.27
 21
    0.08
 31
    0.00
  0
LINE
  5
17A
  8
0
   6
CONTINUOUS
 10
    0.27
 20
    0.08
 30
    0.00
 11
    0.34
 21
    0.05
 31
    0.00
  0
LINE
  5
17B
  8
0
   6
CONTINUOUS
 10
    0.34
 20
    0.05
 30
    0.00
 11
    0.40
 21
    0.02
 31
    0.00
  0
LINE
  5
17C
  8
0
   6
CONTINUOUS
 10
    0.40
 20
    0.02
 30
    0.00
 11
    0.45
 21
   -0.02
 31
    0.00
  0
LINE
  5
17D
  8
0
   6
CONTINUOUS
 10
    0.45
 20
   -0.02
 30
    0.00
 11
    0.48
 21
   -0.06
 31
    0.00
  0
LINE
  5
17E
  8
0
   6
CONTINUOUS
 10
    0.48
 20
   -0.06
 30
    0.00
 11
    0.49
 21
   -0.09
 31
    0.00
  0
LINE
  5
17F
  8
0
   6
CONTINUOUS
 10
    0.00
 20
    0.00
 30
    0.00
 11
    0.09
 21
   -0.03
 31
    0.00
  0
LINE
  5
180
  8
0
   6
CONTINUOUS
 10
    0.09
 20
   -0.03
 30
    0.00
 11
    0.14
 21
   -0.06
 31
    0.00
  0
LINE
  5
181
  8
0
   6
CONTINUOUS
 10
    0.14
 20
   -0.06
 30
    0.00
 11
    0.19
 21
   -0.10
 31
    0.00
  0
LINE
  5
182
  8
0
   6
CONTINUOUS
 10
    0.19
 20
   -0.10
 30
    0.00
 11
    0.23
 21
   -0.16
 31
    0.00
  0
LINE
  5
183
  8
0
   6
CONTINUOUS
 10
    0.23
 20
   -0.16
 30
    0.00
 11
    0.25
 21
   -0.23
 31
    0.00
  0
LINE
  5
184
  8
0
   6
CONTINUOUS
 10
    0.25
 20
   -0.23
 30
    0.00
 11
    0.26
 21
   -0.29
 31
    0.00
  0
LINE
  5
185
  8
0
   6
CONTINUOUS
 10
    0.26
 20
   -0.29
 30
    0.00
 11
    0.26
 21
   -0.36
 31
    0.00
  0
LINE
  5
186
  8
0
   6
CONTINUOUS
 10
    0.26
 20
   -0.36
 30
    0.00
 11
    0.25
 21
   -0.40
 31
    0.00
  0
LINE
  5
187
  8
0
   6
CONTINUOUS
 10
    0.25
 20
   -0.40
 30
    0.00
 11
    0.24
 21
   -0.44
 31
    0.00
  0
LINE
  5
188
  8
0
   6
CONTINUOUS
 10
    0.00
 20
    0.00
 30
    0.00
 11
    0.03
 21
   -0.08
 31
    0.00
  0
LINE
  5
189
  8
0
   6
CONTINUOUS
 10
    0.03
 20
   -0.08
 30
    0.00
 11
    0.04
 21
   -0.15
 31
    0.00
  0
LINE
  5
18A
  8
0
   6
CONTINUOUS
 10
    0.04
 20
   -0.15
 30
    0.00
 11
    0.03
 21
   -0.21
 31
    0.00
  0
LINE
  5
18B
  8
0
   6
CONTINUOUS
 10
    0.03
 20
   -0.21
 30
    0.00
 11
    0.01
 21
   -0.28
 31
    0.00
  0
LINE
  5
18C
  8
0
   6
CONTINUOUS
 10
    0.01
 20
   -0.28
 30
    0.00
 11
   -0.02
 21
   -0.34
 31
    0.00
  0
LINE
  5
18D
  8
0
   6
CONTINUOUS
 10
   -0.02
 20
   -0.34
 30
    0.00
 11
   -0.06
 21
   -0.39
 31
    0.00
  0
LINE
  5
18E
  8
0
   6
CONTINUOUS
 10
   -0.06
 20
   -0.39
 30
    0.00
 11
   -0.12
 21
   -0.43
 31
    0.00
  0
LINE
  5
18F
  8
0
   6
CONTINUOUS
 10
   -0.12
 20
   -0.43
 30
    0.00
 11
   -0.17
 21
   -0.45
 31
    0.00
  0
LINE
  5
190
  8
0
   6
CONTINUOUS
 10
   -0.17
 20
   -0.45
 30
    0.00
 11
   -0.19
 21
   -0.46
 31
    0.00
  0
LINE
  5
191
  8
0
   6
CONTINUOUS
 10
    0.00
 20
    0.00
 30
    0.00
 11
   -0.04
 21
   -0.07
 31
    0.00
  0
LINE
  5
192
  8
0
   6
CONTINUOUS
 10
   -0.04
 20
   -0.07
 30
    0.00
 11
   -0.10
 21
   -0.12
 31
    0.00
  0
LINE
  5
193
  8
0
   6
CONTINUOUS
 10
   -0.10
 20
   -0.12
 30
    0.00
 11
   -0.15
 21
   -0.16
 31
    0.00
  0
LINE
  5
194
  8
0
   6
CONTINUOUS
 10
   -0.15
 20
   -0.16
 30
    0.00
 11
   -0.21
 21
   -0.18
 31
    0.00
  0
LINE
  5
195
  8
0
   6
CONTINUOUS
 10
   -0.21
 20
   -0.18
 30
    0.00
 11
   -0.28
 21
   -0.19
 31
    0.00
  0
LINE
  5
196
  8
0
   6
CONTINUOUS
 10
   -0.28
 20
   -0.19
 30
    0.00
 11
   -0.34
 21
   -0.19
 31
    0.00
  0
LINE
  5
197
  8
0
   6
CONTINUOUS
 10
   -0.34
 20
   -0.19
 30
    0.00
 11
   -0.41
 21
   -0.18
 31
    0.00
  0
LINE
  5
198
  8
0
   6
CONTINUOUS
 10
   -0.41
 20
   -0.18
 30
    0.00
 11
   -0.46
 21
   -0.15
 31
    0.00
  0
LINE
  5
199
  8
0
   6
CONTINUOUS
 10
   -0.46
 20
   -0.15
 30
    0.00
 11
   -0.48
 21
   -0.14
 31
    0.00
  0
LINE
  5
19A
  8
0
   6
CONTINUOUS
 10
    0.00
 20
    0.00
 30
    0.00
 11
   -0.09
 21
   -0.01
 31
    0.00
  0
LINE
  5
19B
  8
0
   6
CONTINUOUS
 10
   -0.09
 20
   -0.01
 30
    0.00
 11
   -0.15
 21
    0.00
 31
    0.00
  0
LINE
  5
19C
  8
0
   6
CONTINUOUS
 10
   -0.15
 20
    0.00
 30
    0.00
 11
   -0.21
 21
    0.01
 31
    0.00
  0
LINE
  5
19D
  8
0
   6
CONTINUOUS
 10
   -0.21
 20
    0.01
 30
    0.00
 11
   -0.27
 21
    0.05
 31
    0.00
  0
LINE
  5
19E
  8
0
   6
CONTINUOUS
 10
   -0.27
 20
    0.05
 30
    0.00
 11
   -0.33
 21
    0.10
 31
    0.00
  0
LINE
  5
19F
  8
0
   6
CONTINUOUS
 10
   -0.33
 20
    0.10
 30
    0.00
 11
   -0.37
 21
    0.15
 31
    0.00
  0
LINE
  5
1A0
  8
0
   6
CONTINUOUS
 10
   -0.37
 20
    0.15
 30
    0.00
 11
   -0.39
 21
    0.21
 31
    0.00
  0
LINE
  5
1A1
  8
0
   6
CONTINUOUS
 10
   -0.39
 20
    0.21
 30
    0.00
 11
   -0.40
 21
    0.26
 31
    0.00
  0
LINE
  5
1A2
  8
0
   6
CONTINUOUS
 10
   -0.40
 20
    0.26
 30
    0.00
 11
   -0.41
 21
    0.29
 31
    0.00
  0
LINE
  5
1A3
  8
0
   6
CONTINUOUS
 10
   -0.16
 20
    0.08
 30
    0.00
 11
   -0.18
 21
    0.15
 31
    0.00
  0
LINE
  5
1A4
  8
0
   6
CONTINUOUS
 10
   -0.18
 20
    0.15
 30
    0.00
 11
   -0.19
 21
    0.19
 31
    0.00
  0
LINE
  5
1A5
  8
0
   6
CONTINUOUS
 10
   -0.19
 20
    0.19
 30
    0.00
 11
   -0.19
 21
    0.25
 31
    0.00
  0
LINE
  5
1A6
  8
0
   6
CONTINUOUS
 10
   -0.19
 20
    0.25
 30
    0.00
 11
   -0.18
 21
    0.30
 31
    0.00
  0
LINE
  5
1A7
  8
0
   6
CONTINUOUS
 10
   -0.18
 20
    0.30
 30
    0.00
 11
   -0.16
 21
    0.36
 31
    0.00
  0
LINE
  5
1A8
  8
0
   6
CONTINUOUS
 10
   -0.16
 20
    0.36
 30
    0.00
 11
   -0.13
 21
    0.41
 31
    0.00
  0
LINE
  5
1A9
  8
0
   6
CONTINUOUS
 10
   -0.13
 20
    0.41
 30
    0.00
 11
   -0.10
 21
    0.45
 31
    0.00
  0
LINE
  5
1AA
  8
0
   6
CONTINUOUS
 10
   -0.10
 20
    0.45
 30
    0.00
 11
   -0.06
 21
    0.48
 31
    0.00
  0
LINE
  5
1AB
  8
0
   6
CONTINUOUS
 10
   -0.06
 20
    0.48
 30
    0.00
 11
   -0.03
 21
    0.50
 31
    0.00
  0
LINE
  5
1AC
  8
0
   6
CONTINUOUS
 10
   -0.03
 20
    0.50
 30
    0.00
 11
   -0.05
 21
    0.46
 31
    0.00
  0
LINE
  5
1AD
  8
0
   6
CONTINUOUS
 10
   -0.05
 20
    0.46
 30
    0.00
 11
   -0.06
 21
    0.42
 31
    0.00
  0
LINE
  5
1AE
  8
0
   6
CONTINUOUS
 10
   -0.06
 20
    0.42
 30
    0.00
 11
   -0.07
 21
    0.37
 31
    0.00
  0
LINE
  5
1AF
  8
0
   6
CONTINUOUS
 10
   -0.07
 20
    0.37
 30
    0.00
 11
   -0.07
 21
    0.30
 31
    0.00
  0
LINE
  5
1B0
  8
0
   6
CONTINUOUS
 10
   -0.07
 20
    0.30
 30
    0.00
 11
   -0.07
 21
    0.24
 31
    0.00
  0
LINE
  5
1B1
  8
0
   6
CONTINUOUS
 10
   -0.07
 20
    0.24
 30
    0.00
 11
   -0.05
 21
    0.20
 31
    0.00
  0
LINE
  5
1B2
  8
0
   6
CONTINUOUS
 10
   -0.05
 20
    0.20
 30
    0.00
 11
   -0.04
 21
    0.18
 31
    0.00
  0
LINE
  5
1B3
  8
0
   6
CONTINUOUS
 10
   -0.04
 20
    0.18
 30
    0.00
 11
   -0.01
 21
    0.23
 31
    0.00
  0
LINE
  5
1B4
  8
0
   6
CONTINUOUS
 10
   -0.01
 20
    0.23
 30
    0.00
 11
    0.04
 21
    0.28
 31
    0.00
  0
LINE
  5
1B5
  8
0
   6
CONTINUOUS
 10
    0.04
 20
    0.28
 30
    0.00
 11
    0.10
 21
    0.32
 31
    0.00
  0
LINE
  5
1B6
  8
0
   6
CONTINUOUS
 10
    0.10
 20
    0.32
 30
    0.00
 11
    0.17
 21
    0.35
 31
    0.00
  0
LINE
  5
1B7
  8
0
   6
CONTINUOUS
 10
    0.17
 20
    0.35
 30
    0.00
 11
    0.22
 21
    0.36
 31
    0.00
  0
LINE
  5
1B8
  8
0
   6
CONTINUOUS
 10
    0.22
 20
    0.36
 30
    0.00
 11
    0.29
 21
    0.36
 31
    0.00
  0
LINE
  5
1B9
  8
0
   6
CONTINUOUS
 10
    0.29
 20
    0.36
 30
    0.00
 11
    0.34
 21
    0.34
 31
    0.00
  0
LINE
  5
1BA
  8
0
   6
CONTINUOUS
 10
    0.34
 20
    0.34
 30
    0.00
 11
    0.38
 21
    0.33
 31
    0.00
  0
LINE
  5
1BB
  8
0
   6
CONTINUOUS
 10
    0.38
 20
    0.33
 30
    0.00
 11
    0.33
 21
    0.32
 31
    0.00
  0
LINE
  5
1BC
  8
0
   6
CONTINUOUS
 10
    0.33
 20
    0.32
 30
    0.00
 11
    0.28
 21
    0.31
 31
    0.00
  0
LINE
  5
1BD
  8
0
   6
CONTINUOUS
 10
    0.28
 20
    0.31
 30
    0.00
 11
    0.23
 21
    0.28
 31
    0.00
  0
LINE
  5
1BE
  8
0
   6
CONTINUOUS
 10
    0.23
 20
    0.28
 30
    0.00
 11
    0.19
 21
    0.25
 31
    0.00
  0
LINE
  5
1BF
  8
0
   6
CONTINUOUS
 10
    0.19
 20
    0.25
 30
    0.00
 11
    0.15
 21
    0.21
 31
    0.00
  0
LINE
  5
1C0
  8
0
   6
CONTINUOUS
 10
    0.15
 20
    0.21
 30
    0.00
 11
    0.13
 21
    0.17
 31
    0.00
  0
LINE
  5
1C1
  8
0
   6
CONTINUOUS
 10
    0.13
 20
    0.17
 30
    0.00
 11
    0.11
 21
    0.14
 31
    0.00
  0
LINE
  5
1C2
  8
0
   6
CONTINUOUS
 10
    0.11
 20
    0.14
 30
    0.00
 11
    0.17
 21
    0.15
 31
    0.00
  0
LINE
  5
1C3
  8
0
   6
CONTINUOUS
 10
    0.17
 20
    0.15
 30
    0.00
 11
    0.23
 21
    0.15
 31
    0.00
  0
LINE
  5
1C4
  8
0
   6
CONTINUOUS
 10
    0.23
 20
    0.15
 30
    0.00
 11
    0.28
 21
    0.13
 31
    0.00
  0
LINE
  5
1C5
  8
0
   6
CONTINUOUS
 10
    0.28
 20
    0.13
 30
    0.00
 11
    0.33
 21
    0.11
 31
    0.00
  0
LINE
  5
1C6
  8
0
   6
CONTINUOUS
 10
    0.33
 20
    0.11
 30
    0.00
 11
    0.38
 21
    0.08
 31
    0.00
  0
LINE
  5
1C7
  8
0
   6
CONTINUOUS
 10
    0.38
 20
    0.08
 30
    0.00
 11
    0.43
 21
    0.04
 31
    0.00
  0
LINE
  5
1C8
  8
0
   6
CONTINUOUS
 10
    0.43
 20
    0.04
 30
    0.00
 11
    0.46
 21
    0.00
 31
    0.00
  0
LINE
  5
1C9
  8
0
   6
CONTINUOUS
 10
    0.46
 20
    0.00
 30
    0.00
 11
    0.48
 21
   -0.05
 31
    0.00
  0
LINE
  5
1CA
  8
0
   6
CONTINUOUS
 10
    0.48
 20
   -0.05
 30
    0.00
 11
    0.49
 21
   -0.09
 31
    0.00
  0
LINE
  5
1CB
  8
0
   6
CONTINUOUS
 10
    0.49
 20
   -0.09
 30
    0.00
 11
    0.46
 21
   -0.06
 31
    0.00
  0
LINE
  5
1CC
  8
0
   6
CONTINUOUS
 10
    0.46
 20
   -0.06
 30
    0.00
 11
    0.43
 21
   -0.04
 31
    0.00
  0
LINE
  5
1CD
  8
0
   6
CONTINUOUS
 10
    0.43
 20
   -0.04
 30
    0.00
 11
    0.39
 21
   -0.02
 31
    0.00
  0
LINE
  5
1CE
  8
0
   6
CONTINUOUS
 10
    0.39
 20
   -0.02
 30
    0.00
 11
    0.34
 21
    0.00
 31
    0.00
  0
LINE
  5
1CF
  8
0
   6
CONTINUOUS
 10
    0.34
 20
    0.00
 30
    0.00
 11
    0.29
 21
    0.01
 31
    0.00
  0
LINE
  5
1D0
  8
0
   6
CONTINUOUS
 10
    0.29
 20
    0.01
 30
    0.00
 11
    0.24
 21
    0.01
 31
    0.00
  0
LINE
  5
1D1
  8
0
   6
CONTINUOUS
 10
    0.24
 20
    0.01
 30
    0.00
 11
    0.18
 21
    0.00
 31
    0.00
  0
LINE
  5
1D2
  8
0
   6
CONTINUOUS
 10
    0.18
 20
    0.00
 30
    0.00
 11
    0.23
 21
   -0.05
 31
    0.00
  0
LINE
  5
1D3
  8
0
   6
CONTINUOUS
 10
    0.23
 20
   -0.05
 30
    0.00
 11
    0.26
 21
   -0.09
 31
    0.00
  0
LINE
  5
1D4
  8
0
   6
CONTINUOUS
 10
    0.26
 20
   -0.09
 30
    0.00
 11
    0.28
 21
   -0.14
 31
    0.00
  0
LINE
  5
1D5
  8
0
   6
CONTINUOUS
 10
    0.28
 20
   -0.14
 30
    0.00
 11
    0.29
 21
   -0.19
 31
    0.00
  0
LINE
  5
1D6
  8
0
   6
CONTINUOUS
 10
    0.29
 20
   -0.19
 30
    0.00
 11
    0.30
 21
   -0.25
 31
    0.00
  0
LINE
  5
1D7
  8
0
   6
CONTINUOUS
 10
    0.30
 20
   -0.25
 30
    0.00
 11
    0.30
 21
   -0.31
 31
    0.00
  0
LINE
  5
1D8
  8
0
   6
CONTINUOUS
 10
    0.30
 20
   -0.31
 30
    0.00
 11
    0.28
 21
   -0.37
 31
    0.00
  0
LINE
  5
1D9
  8
0
   6
CONTINUOUS
 10
    0.28
 20
   -0.37
 30
    0.00
 11
    0.25
 21
   -0.42
 31
    0.00
  0
LINE
  5
1DA
  8
0
   6
CONTINUOUS
 10
    0.25
 20
   -0.42
 30
    0.00
 11
    0.24
 21
   -0.44
 31
    0.00
  0
LINE
  5
1DB
  8
0
   6
CONTINUOUS
 10
    0.24
 20
   -0.44
 30
    0.00
 11
    0.24
 21
   -0.39
 31
    0.00
  0
LINE
  5
1DC
  8
0
   6
CONTINUOUS
 10
    0.24
 20
   -0.39
 30
    0.00
 11
    0.24
 21
   -0.35
 31
    0.00
  0
LINE
  5
1DD
  8
0
   6
CONTINUOUS
 10
    0.24
 20
   -0.35
 30
    0.00
 11
    0.23
 21
   -0.30
 31
    0.00
  0
LINE
  5
1DE
  8
0
   6
CONTINUOUS
 10
    0.23
 20
   -0.30
 30
    0.00
 11
    0.20
 21
   -0.25
 31
    0.00
  0
LINE
  5
1DF
  8
0
   6
CONTINUOUS
 10
    0.20
 20
   -0.25
 30
    0.00
 11
    0.18
 21
   -0.21
 31
    0.00
  0
LINE
  5
1E0
  8
0
   6
CONTINUOUS
 10
    0.18
 20
   -0.21
 30
    0.00
 11
    0.14
 21
   -0.17
 31
    0.00
  0
LINE
  5
1E1
  8
0
   6
CONTINUOUS
 10
    0.14
 20
   -0.17
 30
    0.00
 11
    0.11
 21
   -0.14
 31
    0.00
  0
LINE
  5
1E2
  8
0
   6
CONTINUOUS
 10
    0.11
 20
   -0.14
 30
    0.00
 11
    0.11
 21
   -0.21
 31
    0.00
  0
LINE
  5
1E3
  8
0
   6
CONTINUOUS
 10
    0.11
 20
   -0.21
 30
    0.00
 11
    0.09
 21
   -0.26
 31
    0.00
  0
LINE
  5
1E4
  8
0
   6
CONTINUOUS
 10
    0.09
 20
   -0.26
 30
    0.00
 11
    0.06
 21
   -0.31
 31
    0.00
  0
LINE
  5
1E5
  8
0
   6
CONTINUOUS
 10
    0.06
 20
   -0.31
 30
    0.00
 11
    0.01
 21
   -0.37
 31
    0.00
  0
LINE
  5
1E6
  8
0
   6
CONTINUOUS
 10
    0.01
 20
   -0.37
 30
    0.00
 11
   -0.03
 21
   -0.40
 31
    0.00
  0
LINE
  5
1E7
  8
0
   6
CONTINUOUS
 10
   -0.03
 20
   -0.40
 30
    0.00
 11
   -0.08
 21
   -0.43
 31
    0.00
  0
LINE
  5
1E8
  8
0
   6
CONTINUOUS
 10
   -0.08
 20
   -0.43
 30
    0.00
 11
   -0.14
 21
   -0.45
 31
    0.00
  0
LINE
  5
1E9
  8
0
   6
CONTINUOUS
 10
   -0.14
 20
   -0.45
 30
    0.00
 11
   -0.18
 21
   -0.46
 31
    0.00
  0
LINE
  5
1EA
  8
0
   6
CONTINUOUS
 10
   -0.18
 20
   -0.46
 30
    0.00
 11
   -0.19
 21
   -0.46
 31
    0.00
  0
LINE
  5
1EB
  8
0
   6
CONTINUOUS
 10
   -0.19
 20
   -0.46
 30
    0.00
 11
   -0.16
 21
   -0.44
 31
    0.00
  0
LINE
  5
1EC
  8
0
   6
CONTINUOUS
 10
   -0.16
 20
   -0.44
 30
    0.00
 11
   -0.12
 21
   -0.40
 31
    0.00
  0
LINE
  5
1ED
  8
0
   6
CONTINUOUS
 10
   -0.12
 20
   -0.40
 30
    0.00
 11
   -0.09
 21
   -0.35
 31
    0.00
  0
LINE
  5
1EE
  8
0
   6
CONTINUOUS
 10
   -0.09
 20
   -0.35
 30
    0.00
 11
   -0.07
 21
   -0.32
 31
    0.00
  0
LINE
  5
1EF
  8
0
   6
CONTINUOUS
 10
   -0.07
 20
   -0.32
 30
    0.00
 11
   -0.06
 21
   -0.28
 31
    0.00
  0
LINE
  5
1F0
  8
0
   6
CONTINUOUS
 10
   -0.06
 20
   -0.28
 30
    0.00
 11
   -0.05
 21
   -0.23
 31
    0.00
  0
LINE
  5
1F1
  8
0
   6
CONTINUOUS
 10
   -0.05
 20
   -0.23
 30
    0.00
 11
   -0.04
 21
   -0.19
 31
    0.00
  0
LINE
  5
1F2
  8
0
   6
CONTINUOUS
 10
   -0.04
 20
   -0.19
 30
    0.00
 11
   -0.04
 21
   -0.18
 31
    0.00
  0
LINE
  5
1F3
  8
0
   6
CONTINUOUS
 10
   -0.04
 20
   -0.18
 30
    0.00
 11
   -0.10
 21
   -0.21
 31
    0.00
  0
LINE
  5
1F4
  8
0
   6
CONTINUOUS
 10
   -0.10
 20
   -0.21
 30
    0.00
 11
   -0.15
 21
   -0.23
 31
    0.00
  0
LINE
  5
1F5
  8
0
   6
CONTINUOUS
 10
   -0.15
 20
   -0.23
 30
    0.00
 11
   -0.20
 21
   -0.24
 31
    0.00
  0
LINE
  5
1F6
  8
0
   6
CONTINUOUS
 10
   -0.20
 20
   -0.24
 30
    0.00
 11
   -0.26
 21
   -0.25
 31
    0.00
  0
LINE
  5
1F7
  8
0
   6
CONTINUOUS
 10
   -0.26
 20
   -0.25
 30
    0.00
 11
   -0.33
 21
   -0.23
 31
    0.00
  0
LINE
  5
1F8
  8
0
   6
CONTINUOUS
 10
   -0.33
 20
   -0.23
 30
    0.00
 11
   -0.40
 21
   -0.21
 31
    0.00
  0
LINE
  5
1F9
  8
0
   6
CONTINUOUS
 10
   -0.40
 20
   -0.21
 30
    0.00
 11
   -0.45
 21
   -0.17
 31
    0.00
  0
LINE
  5
1FA
  8
0
   6
CONTINUOUS
 10
   -0.45
 20
   -0.17
 30
    0.00
 11
   -0.48
 21
   -0.14
 31
    0.00
  0
LINE
  5
1FB
  8
0
   6
CONTINUOUS
 10
   -0.48
 20
   -0.14
 30
    0.00
 11
   -0.44
 21
   -0.15
 31
    0.00
  0
LINE
  5
1FC
  8
0
   6
CONTINUOUS
 10
   -0.44
 20
   -0.15
 30
    0.00
 11
   -0.38
 21
   -0.15
 31
    0.00
  0
LINE
  5
1FD
  8
0
   6
CONTINUOUS
 10
   -0.38
 20
   -0.15
 30
    0.00
 11
   -0.32
 21
   -0.15
 31
    0.00
  0
LINE
  5
1FE
  8
0
   6
CONTINUOUS
 10
   -0.32
 20
   -0.15
 30
    0.00
 11
   -0.26
 21
   -0.14
 31
    0.00
  0
LINE
  5
1FF
  8
0
   6
CONTINUOUS
 10
   -0.26
 20
   -0.14
 30
    0.00
 11
   -0.20
 21
   -0.11
 31
    0.00
  0
LINE
  5
200
  8
0
   6
CONTINUOUS
 10
   -0.20
 20
   -0.11
 30
    0.00
 11
   -0.16
 21
   -0.08
 31
    0.00
  0
LINE
  5
201
  8
0
   6
CONTINUOUS
 10
   -0.16
 20
   -0.08
 30
    0.00
 11
   -0.23
 21
   -0.06
 31
    0.00
  0
LINE
  5
202
  8
0
   6
CONTINUOUS
 10
   -0.23
 20
   -0.06
 30
    0.00
 11
   -0.28
 21
   -0.03
 31
    0.00
  0
LINE
  5
203
  8
0
   6
CONTINUOUS
 10
   -0.28
 20
   -0.03
 30
    0.00
 11
   -0.33
 21
    0.02
 31
    0.00
  0
LINE
  5
204
  8
0
   6
CONTINUOUS
 10
   -0.33
 20
    0.02
 30
    0.00
 11
   -0.37
 21
    0.08
 31
    0.00
  0
LINE
  5
205
  8
0
   6
CONTINUOUS
 10
   -0.37
 20
    0.08
 30
    0.00
 11
   -0.39
 21
    0.14
 31
    0.00
  0
LINE
  5
206
  8
0
   6
CONTINUOUS
 10
   -0.39
 20
    0.14
 30
    0.00
 11
   -0.41
 21
    0.20
 31
    0.00
  0
LINE
  5
207
  8
0
   6
CONTINUOUS
 10
   -0.41
 20
    0.20
 30
    0.00
 11
   -0.41
 21
    0.25
 31
    0.00
  0
LINE
  5
208
  8
0
   6
CONTINUOUS
 10
   -0.41
 20
    0.25
 30
    0.00
 11
   -0.41
 21
    0.29
 31
    0.00
  0
LINE
  5
209
  8
0
   6
CONTINUOUS
 10
   -0.41
 20
    0.29
 30
    0.00
 11
   -0.39
 21
    0.25
 31
    0.00
  0
LINE
  5
20A
  8
0
   6
CONTINUOUS
 10
   -0.39
 20
    0.25
 30
    0.00
 11
   -0.37
 21
    0.22
 31
    0.00
  0
LINE
  5
20B
  8
0
   6
CONTINUOUS
 10
   -0.37
 20
    0.22
 30
    0.00
 11
   -0.34
 21
    0.18
 31
    0.00
  0
LINE
  5
20C
  8
0
   6
CONTINUOUS
 10
   -0.34
 20
    0.18
 30
    0.00
 11
   -0.30
 21
    0.14
 31
    0.00
  0
LINE
  5
20D
  8
0
   6
CONTINUOUS
 10
   -0.30
 20
    0.14
 30
    0.00
 11
   -0.25
 21
    0.11
 31
    0.00
  0
LINE
  5
20E
  8
0
   6
CONTINUOUS
 10
   -0.25
 20
    0.11
 30
    0.00
 11
   -0.19
 21
    0.08
 31
    0.00
  0
LINE
  5
20F
  8
0
   6
CONTINUOUS
 10
   -0.19
 20
    0.08
 30
    0.00
 11
   -0.16
 21
    0.08
 31
    0.00
  0
ATTDEF
  5
210
  8
0
  6
CONTINUOUS
 10
    0.38
 20
    0.38
 30
    0.00
 40
10.00
  1

  3
ENTER LABEL
  2
LABEL
 70
0
  0
ENDBLK
  5
211
  8
0
  0
BLOCK
  8
0
  2
TREE06
 70
2
 10
0.00000000
 20
0.00000000
 30
0.00000000
  3
TREE06
  1

  0
LINE
  5
212
  8
0
   6
CONTINUOUS
 10
    0.00
 20
    0.00
 30
    0.00
 11
    0.00
 21
    0.50
 31
    0.00
  0
LINE
  5
213
  8
0
   6
CONTINUOUS
 10
    0.00
 20
    0.00
 30
    0.00
 11
    0.13
 21
    0.48
 31
    0.00
  0
LINE
  5
214
  8
0
   6
CONTINUOUS
 10
    0.00
 20
    0.00
 30
    0.00
 11
    0.25
 21
    0.43
 31
    0.00
  0
LINE
  5
215
  8
0
   6
CONTINUOUS
 10
    0.00
 20
    0.00
 30
    0.00
 11
    0.35
 21
    0.35
 31
    0.00
  0
LINE
  5
216
  8
0
   6
CONTINUOUS
 10
    0.00
 20
    0.00
 30
    0.00
 11
    0.43
 21
    0.25
 31
    0.00
  0
LINE
  5
217
  8
0
   6
CONTINUOUS
 10
    0.00
 20
    0.00
 30
    0.00
 11
    0.48
 21
    0.13
 31
    0.00
  0
LINE
  5
218
  8
0
   6
CONTINUOUS
 10
    0.00
 20
    0.00
 30
    0.00
 11
    0.50
 21
    0.00
 31
    0.00
  0
LINE
  5
219
  8
0
   6
CONTINUOUS
 10
    0.00
 20
    0.00
 30
    0.00
 11
    0.48
 21
   -0.13
 31
    0.00
  0
LINE
  5
21A
  8
0
   6
CONTINUOUS
 10
    0.00
 20
    0.00
 30
    0.00
 11
    0.43
 21
   -0.25
 31
    0.00
  0
LINE
  5
21B
  8
0
   6
CONTINUOUS
 10
    0.00
 20
    0.00
 30
    0.00
 11
    0.35
 21
   -0.35
 31
    0.00
  0
LINE
  5
21C
  8
0
   6
CONTINUOUS
 10
    0.00
 20
    0.00
 30
    0.00
 11
    0.25
 21
   -0.43
 31
    0.00
  0
LINE
  5
21D
  8
0
   6
CONTINUOUS
 10
    0.00
 20
    0.00
 30
    0.00
 11
    0.13
 21
   -0.48
 31
    0.00
  0
LINE
  5
21E
  8
0
   6
CONTINUOUS
 10
    0.00
 20
    0.00
 30
    0.00
 11
    0.00
 21
   -0.50
 31
    0.00
  0
LINE
  5
21F
  8
0
   6
CONTINUOUS
 10
    0.00
 20
    0.00
 30
    0.00
 11
   -0.13
 21
   -0.48
 31
    0.00
  0
LINE
  5
220
  8
0
   6
CONTINUOUS
 10
    0.00
 20
    0.00
 30
    0.00
 11
   -0.25
 21
   -0.43
 31
    0.00
  0
LINE
  5
221
  8
0
   6
CONTINUOUS
 10
    0.00
 20
    0.00
 30
    0.00
 11
   -0.35
 21
   -0.35
 31
    0.00
  0
LINE
  5
222
  8
0
   6
CONTINUOUS
 10
    0.00
 20
    0.00
 30
    0.00
 11
   -0.43
 21
   -0.25
 31
    0.00
  0
LINE
  5
223
  8
0
   6
CONTINUOUS
 10
    0.00
 20
    0.00
 30
    0.00
 11
   -0.48
 21
   -0.13
 31
    0.00
  0
LINE
  5
224
  8
0
   6
CONTINUOUS
 10
    0.00
 20
    0.00
 30
    0.00
 11
   -0.50
 21
    0.00
 31
    0.00
  0
LINE
  5
225
  8
0
   6
CONTINUOUS
 10
    0.00
 20
    0.00
 30
    0.00
 11
   -0.48
 21
    0.13
 31
    0.00
  0
LINE
  5
226
  8
0
   6
CONTINUOUS
 10
    0.00
 20
    0.00
 30
    0.00
 11
   -0.43
 21
    0.25
 31
    0.00
  0
LINE
  5
227
  8
0
   6
CONTINUOUS
 10
    0.00
 20
    0.00
 30
    0.00
 11
   -0.35
 21
    0.35
 31
    0.00
  0
LINE
  5
228
  8
0
   6
CONTINUOUS
 10
    0.00
 20
    0.00
 30
    0.00
 11
   -0.25
 21
    0.43
 31
    0.00
  0
LINE
  5
229
  8
0
   6
CONTINUOUS
 10
    0.00
 20
    0.00
 30
    0.00
 11
   -0.13
 21
    0.48
 31
    0.00
  0
LINE
  5
22A
  8
0
   6
CONTINUOUS
 10
    0.00
 20
    0.00
 30
    0.00
 11
    0.04
 21
    0.27
 31
    0.00
  0
LINE
  5
22B
  8
0
   6
CONTINUOUS
 10
    0.00
 20
    0.00
 30
    0.00
 11
    0.10
 21
    0.25
 31
    0.00
  0
LINE
  5
22C
  8
0
   6
CONTINUOUS
 10
    0.00
 20
    0.00
 30
    0.00
 11
    0.17
 21
    0.22
 31
    0.00
  0
LINE
  5
22D
  8
0
   6
CONTINUOUS
 10
    0.00
 20
    0.00
 30
    0.00
 11
    0.22
 21
    0.17
 31
    0.00
  0
LINE
  5
22E
  8
0
   6
CONTINUOUS
 10
    0.00
 20
    0.00
 30
    0.00
 11
    0.25
 21
    0.10
 31
    0.00
  0
LINE
  5
22F
  8
0
   6
CONTINUOUS
 10
    0.00
 20
    0.00
 30
    0.00
 11
    0.27
 21
    0.04
 31
    0.00
  0
LINE
  5
230
  8
0
   6
CONTINUOUS
 10
    0.00
 20
    0.00
 30
    0.00
 11
    0.27
 21
   -0.04
 31
    0.00
  0
LINE
  5
231
  8
0
   6
CONTINUOUS
 10
    0.00
 20
    0.00
 30
    0.00
 11
    0.25
 21
   -0.10
 31
    0.00
  0
LINE
  5
232
  8
0
   6
CONTINUOUS
 10
    0.00
 20
    0.00
 30
    0.00
 11
    0.22
 21
   -0.17
 31
    0.00
  0
LINE
  5
233
  8
0
   6
CONTINUOUS
 10
    0.00
 20
    0.00
 30
    0.00
 11
    0.17
 21
   -0.22
 31
    0.00
  0
LINE
  5
234
  8
0
   6
CONTINUOUS
 10
    0.00
 20
    0.00
 30
    0.00
 11
    0.10
 21
   -0.25
 31
    0.00
  0
LINE
  5
235
  8
0
   6
CONTINUOUS
 10
    0.00
 20
    0.00
 30
    0.00
 11
    0.04
 21
   -0.27
 31
    0.00
  0
LINE
  5
236
  8
0
   6
CONTINUOUS
 10
    0.00
 20
    0.00
 30
    0.00
 11
   -0.04
 21
   -0.27
 31
    0.00
  0
LINE
  5
237
  8
0
   6
CONTINUOUS
 10
    0.00
 20
    0.00
 30
    0.00
 11
   -0.10
 21
   -0.25
 31
    0.00
  0
LINE
  5
238
  8
0
   6
CONTINUOUS
 10
    0.00
 20
    0.00
 30
    0.00
 11
   -0.17
 21
   -0.22
 31
    0.00
  0
LINE
  5
239
  8
0
   6
CONTINUOUS
 10
    0.00
 20
    0.00
 30
    0.00
 11
   -0.22
 21
   -0.17
 31
    0.00
  0
LINE
  5
23A
  8
0
   6
CONTINUOUS
 10
    0.00
 20
    0.00
 30
    0.00
 11
   -0.25
 21
   -0.10
 31
    0.00
  0
LINE
  5
23B
  8
0
   6
CONTINUOUS
 10
    0.00
 20
    0.00
 30
    0.00
 11
   -0.27
 21
   -0.04
 31
    0.00
  0
LINE
  5
23C
  8
0
   6
CONTINUOUS
 10
    0.00
 20
    0.00
 30
    0.00
 11
   -0.27
 21
    0.04
 31
    0.00
  0
LINE
  5
23D
  8
0
   6
CONTINUOUS
 10
    0.00
 20
    0.00
 30
    0.00
 11
   -0.25
 21
    0.10
 31
    0.00
  0
LINE
  5
23E
  8
0
   6
CONTINUOUS
 10
    0.00
 20
    0.00
 30
    0.00
 11
   -0.22
 21
    0.17
 31
    0.00
  0
LINE
  5
23F
  8
0
   6
CONTINUOUS
 10
    0.00
 20
    0.00
 30
    0.00
 11
   -0.17
 21
    0.22
 31
    0.00
  0
LINE
  5
240
  8
0
   6
CONTINUOUS
 10
    0.00
 20
    0.00
 30
    0.00
 11
   -0.10
 21
    0.25
 31
    0.00
  0
LINE
  5
241
  8
0
   6
CONTINUOUS
 10
    0.00
 20
    0.00
 30
    0.00
 11
   -0.04
 21
    0.27
 31
    0.00
  0
ATTDEF
  5
242
  8
0
  6
CONTINUOUS
 10
    0.38
 20
    0.38
 30
    0.00
 40
10.00
  1

  3
ENTER LABEL
  2
LABEL
 70
0
  0
ENDBLK
  5
243
  8
0
  0
ENDSEC
  0
SECTION
  2
ENTITIES
  0
POLYLINE
  5
244
  8
0
 62
5
 66
1
 10
0.00000000
 20
0.00000000
 30
0.00000000
  0
VERTEX
  5
245
  8
0
 10
2348.98700901
 20
2621.20678740
 30
0.00000000
  0
VERTEX
  5
246
  8
0
 10
2284.85687163
 20
2503.09376746
 30
0.00000000
 42
0.06876781
  0
VERTEX
  5
247
  8
0
 10
2224.75613035
 20
2343.47057874
 30
0.00000000
  0
VERTEX
  5
248
  8
0
 10
2131.54977218
 20
2225.94366779
 30
0.00000000
  0
SEQEND
  5
249
  8
0
  0
TEXT
  5
24A
  8
0
 10
2316.92194032
 20
2562.15027743
 30
0.00000000
 40
10.00000000
 50
61.50000000
  1
S 28°30'00" W
 72
1
 11
2316.92194032
 21
2562.15027743
 31
0.00000000
 73
1
 62
7
  0
TEXT
  5
24C
  8
0
 10
2316.92194032
 20
2562.15027743
 30
0.00000000
 40
10.00000000
 50
61.50000000
  1
134.40'
 72
1
 11
2316.92194032
 21
2562.15027743
 31
0.00000000
 73
3
 62
7
  0
TEXT
  5
24E
  8
0
 10
2249.31803277
 20
2425.34867115
 30
0.00000000
 40
10.00000000
 50
69.36782333
  1
C2
 72
1
 11
2249.31803277
 21
2425.34867115
 31
0.00000000
 73
1
 62
7
  0
TEXT
  5
250
  8
0
 10
2178.15295127
 20
2284.70712326
 30
0.00000000
 40
10.00000000
 50
51.58333333
  1
S 38°25'00" W
 72
1
 11
2178.15295127
 21
2284.70712326
 31
0.00000000
 73
1
 62
7
  0
TEXT
  5
252
  8
0
 10
2178.15295127
 20
2284.70712326
 30
0.00000000
 40
10.00000000
 50
51.58333333
  1
150.00'
 72
1
 11
2178.15295127
 21
2284.70712326
 31
0.00000000
 73
3
 62
7
  0
POLYLINE
  5
254
  8
0
 62
5
 66
1
 10
0.00000000
 20
0.00000000
 30
0.00000000
  0
VERTEX
  5
255
  8
0
 10
2294.30504510
 20
3911.85857885
 30
0.00000000
  0
VERTEX
  5
256
  8
0
 10
2297.41263093
 20
4096.03236339
 30
0.00000000
  0
VERTEX
  5
257
  8
0
 10
2337.18758336
 20
4090.58387264
 30
0.00000000
  0
SEQEND
  5
258
  8
0
  0
TEXT
  5
259
  8
0
 10
2295.85883802
 20
4003.94547112
 30
0.00000000
 40
10.00000000
 50
89.03333333
  1
N 00°58'00" E
 72
1
 11
2295.85883802
 21
4003.94547112
 31
0.00000000
 73
1
 62
7
  0
TEXT
  5
25B
  8
0
 10
2295.85883802
 20
4003.94547112
 30
0.00000000
 40
10.00000000
 50
89.03333333
  1
184.20'
 72
1
 11
2295.85883802
 21
4003.94547112
 31
0.00000000
 73
3
 62
7
  0
TEXT
  5
25D
  8
0
 10
2317.30010715
 20
4093.30811801
 30
0.00000000
 40
10.00000000
 50
352.20000000
  1
L198
 72
1
 11
2317.30010715
 21
4093.30811801
 31
0.00000000
 73
1
 62
7
  0
TEXT
  5
25F
  8
0
 10
2317.30010715
 20
4093.30811801
 30
0.00000000
 40
10.00000000
 50
352.20000000
  1

 72
1
 11
2317.30010715
 21
4093.30811801
 31
0.00000000
 73
3
 62
7
  0
POLYLINE
  5
261
  8
0
 62
5
 66
1
 10
0.00000000
 20
0.00000000
 30
0.00000000
  0
VERTEX
  5
262
  8
0
 10
2445.12254171
 20
4798.20414960
 30
0.00000000
  0
VERTEX
  5
263
  8
0
 10
2468.46922733
 20
4624.76847775
 30
0.00000000
  0
VERTEX
  5
264
  8
0
 10
2471.84990029
 20
4526.31650392
 30
0.00000000
  0
VERTEX
  5
265
  8
0
 10
2483.62908187
 20
4428.01975483
 30
0.00000000
 42
-0.01853118
  0
VERTEX
  5
266
  8
0
 10
2491.85661141
 20
4328.16105890
 30
0.00000000
  0
SEQEND
  5
267
  8
0
  0
TEXT
  5
268
  8
0
 10
2456.79588452
 20
4711.48631367
 30
0.00000000
 40
10.00000000
 50
277.66666667
  1
S 07°40'00" E
 72
1
 11
2456.79588452
 21
4711.48631367
 31
0.00000000
 73
1
 62
7
  0
TEXT
  5
26A
  8
0
 10
2456.79588452
 20
4711.48631367
 30
0.00000000
 40
10.00000000
 50
277.66666667
  1
175.00'
 72
1
 11
2456.79588452
 21
4711.48631367
 31
0.00000000
 73
3
 62
7
  0
TEXT
  5
26C
  8
0
 10
2470.15956381
 20
4575.54249084
 30
0.00000000
 40
10.00000000
 50
91.96666667
  1
S 01°58'00" E
 72
1
 11
2470.15956381
 21
4575.54249084
 31
0.00000000
 73
1
 62
7
  0
TEXT
  5
26E
  8
0
 10
2470.15956381
 20
4575.54249084
 30
0.00000000
 40
10.00000000
 50
91.96666667
  1
98.51'
 72
1
 11
2470.15956381
 21
4575.54249084
 31
0.00000000
 73
3
 62
7
  0
TEXT
  5
270
  8
0
 10
2477.73949108
 20
4477.16812938
 30
0.00000000
 40
10.00000000
 50
276.83333333
  1
S 06°50'00" E
 72
1
 11
2477.73949108
 21
4477.16812938
 31
0.00000000
 73
1
 62
7
  0
TEXT
  5
272
  8
0
 10
2477.73949108
 20
4477.16812938
 30
0.00000000
 40
10.00000000
 50
276.83333333
  1
99.00'
 72
1
 11
2477.73949108
 21
4477.16812938
 31
0.00000000
 73
3
 62
7
  0
TEXT
  5
274
  8
0
 10
2488.66809660
 20
4378.16663980
 30
0.00000000
 40
10.00000000
 50
94.71005903
  1
C233
 72
1
 11
2488.66809660
 21
4378.16663980
 31
0.00000000
 73
1
 62
7
  0
LINE
  5
276
  8
0
 62
5
 10
2348.25300208
 20
3755.65481668
 30
0.00000000
 11
2319.76968175
 21
3695.30704224
 31
0.00000000
  0
TEXT
  5
278
  8
0
 10
2334.01134191
 20
3725.48092946
 30
0.00000000
 40
10.00000000
 50
64.73333333
  1
L235
 72
1
 11
2334.01134191
 21
3725.48092946
 31
0.00000000
 73
1
 62
7
  0
TEXT
  5
27A
  8
0
 10
2334.01134191
 20
3725.48092946
 30
0.00000000
 40
10.00000000
 50
64.73333333
  1

 72
1
 11
2334.01134191
 21
3725.48092946
 31
0.00000000
 73
3
 62
7
  0
POLYLINE
  5
27C
  8
0
 62
5
 66
1
 10
0.00000000
 20
0.00000000
 30
0.00000000
  0
VERTEX
  5
27D
  8
0
 10
2272.07176853
 20
2172.52486452
 30
0.00000000
  0
VERTEX
  5
27E
  8
0
 10
2128.62605514
 20
2216.38062023
 30
0.00000000
  0
VERTEX
  5
27F
  8
0
 10
2131.54977218
 20
2225.94366779
 30
0.00000000
  0
SEQEND
  5
280
  8
0
  0
TEXT
  5
281
  8
0
 10
2200.34891183
 20
2194.45274237
 30
0.00000000
 40
10.00000000
 50
343.00000000
  1
N 73°00'00" W
 72
1
 11
2200.34891183
 21
2194.45274237
 31
0.00000000
 73
1
 62
7
  0
TEXT
  5
283
  8
0
 10
2200.34891183
 20
2194.45274237
 30
0.00000000
 40
10.00000000
 50
343.00000000
  1
150.00'
 72
1
 11
2200.34891183
 21
2194.45274237
 31
0.00000000
 73
3
 62
7
  0
TEXT
  5
285
  8
0
 10
2130.08791366
 20
2221.16214401
 30
0.00000000
 40
10.00000000
 50
73.00000000
  1
L260
 72
1
 11
2130.08791366
 21
2221.16214401
 31
0.00000000
 73
1
 62
7
  0
TEXT
  5
287
  8
0
 10
2130.08791366
 20
2221.16214401
 30
0.00000000
 40
10.00000000
 50
73.00000000
  1

 72
1
 11
2130.08791366
 21
2221.16214401
 31
0.00000000
 73
3
 62
7
  0
POLYLINE
  5
289
  8
0
 62
5
 66
1
 10
0.00000000
 20
0.00000000
 30
0.00000000
  0
VERTEX
  5
28A
  8
0
 10
2313.76624218
 20
5570.77759302
 30
0.00000000
  0
VERTEX
  5
28B
  8
0
 10
2298.44022774
 20
5380.29314935
 30
0.00000000
 42
0.05415806
  0
VERTEX
  5
28C
  8
0
 10
2309.95866595
 20
4967.92668856
 30
0.00000000
  0
VERTEX
  5
28D
  8
0
 10
2381.79291844
 20
4443.52385660
 30
0.00000000
 42
-0.10436904
  0
VERTEX
  5
28E
  8
0
 10
2342.59379950
 20
3898.88953114
 30
0.00000000
  0
VERTEX
  5
28F
  8
0
 10
2305.00344925
 20
3768.08366137
 30
0.00000000
 42
0.16420435
  0
VERTEX
  5
290
  8
0
 10
2334.66982178
 20
3298.72888117
 30
0.00000000
  0
VERTEX
  5
291
  8
0
 10
2420.83573636
 20
3088.28602630
 30
0.00000000
 42
-0.22520691
  0
VERTEX
  5
292
  8
0
 10
2394.12658200
 20
2597.75806470
 30
0.00000000
  0
VERTEX
  5
293
  8
0
 10
2325.22485702
 20
2470.85687364
 30
0.00000000
 42
0.08089726
  0
VERTEX
  5
294
  8
0
 10
2264.49669342
 20
2296.95811943
 30
0.00000000
  0
VERTEX
  5
295
  8
0
 10
2237.53781383
 20
2144.06671578
 30
0.00000000
  0
SEQEND
  5
296
  8
0
  0
TEXT
  5
297
  8
0
 10
2306.10323496
 20
5475.53537118
 30
0.00000000
 40
10.00000000
 50
85.40000000
  1
S 04°36'00" W
 72
1
 11
2306.10323496
 21
5475.53537118
 31
0.00000000
 73
1
 62
7
  0
TEXT
  5
299
  8
0
 10
2306.10323496
 20
5475.53537118
 30
0.00000000
 40
10.00000000
 50
85.40000000
  1
191.10'
 72
1
 11
2306.10323496
 21
5475.53537118
 31
0.00000000
 73
3
 62
7
  0
TEXT
  5
29B
  8
0
 10
2293.03296224
 20
5173.79801080
 30
0.00000000
 40
10.00000000
 50
91.60000000
  1
C273
 72
1
 11
2293.03296224
 21
5173.79801080
 31
0.00000000
 73
1
 62
7
  0
TEXT
  5
29D
  8
0
 10
2345.87579219
 20
4705.72527258
 30
0.00000000
 40
10.00000000
 50
277.80000000
  1
S 07°48'00" E
 72
1
 11
2345.87579219
 21
4705.72527258
 31
0.00000000
 73
1
 62
7
  0
TEXT
  5
29F
  8
0
 10
2345.87579219
 20
4705.72527258
 30
0.00000000
 40
10.00000000
 50
277.80000000
  1
529.30'
 72
1
 11
2345.87579219
 21
4705.72527258
 31
0.00000000
 73
3
 62
7
  0
TEXT
  5
2A1
  8
0
 10
2390.61483908
 20
4169.16110672
 30
0.00000000
 40
10.00000000
 50
85.88333333
  1
C275
 72
1
 11
2390.61483908
 21
4169.16110672
 31
0.00000000
 73
1
 62
7
  0
TEXT
  5
2A3
  8
0
 10
2323.79862438
 20
3833.48659626
 30
0.00000000
 40
10.00000000
 50
73.96666667
  1
S 16°02'00" W
 72
1
 11
2323.79862438
 21
3833.48659626
 31
0.00000000
 73
1
 62
7
  0
TEXT
  5
2A5
  8
0
 10
2323.79862438
 20
3833.48659626
 30
0.00000000
 40
10.00000000
 50
73.96666667
  1
136.10'
 72
1
 11
2323.79862438
 21
3833.48659626
 31
0.00000000
 73
3
 62
7
  0
TEXT
  5
2A7
  8
0
 10
2281.30158835
 20
3530.97059763
 30
0.00000000
 40
10.00000000
 50
93.61666667
  1
C277
 72
1
 11
2281.30158835
 21
3530.97059763
 31
0.00000000
 73
1
 62
7
  0
TEXT
  5
2A9
  8
0
 10
2377.75277907
 20
3193.50745374
 30
0.00000000
 40
10.00000000
 50
292.26666667
  1
S 22°16'00" E
 72
1
 11
2377.75277907
 21
3193.50745374
 31
0.00000000
 73
1
 62
7
  0
TEXT
  5
2AB
  8
0
 10
2377.75277907
 20
3193.50745374
 30
0.00000000
 40
10.00000000
 50
292.26666667
  1
227.40'
 72
1
 11
2377.75277907
 21
3193.50745374
 31
0.00000000
 73
3
 62
7
  0
TEXT
  5
2AD
  8
0
 10
2462.71630175
 20
2840.01450248
 30
0.00000000
 40
10.00000000
 50
86.88333333
  1
C279
 72
1
 11
2462.71630175
 21
2840.01450248
 31
0.00000000
 73
1
 62
7
  0
TEXT
  5
2AF
  8
0
 10
2359.67571951
 20
2534.30746917
 30
0.00000000
 40
10.00000000
 50
61.50000000
  1
S 28°30'00" W
 72
1
 11
2359.67571951
 21
2534.30746917
 31
0.00000000
 73
1
 62
7
  0
TEXT
  5
2B1
  8
0
 10
2359.67571951
 20
2534.30746917
 30
0.00000000
 40
10.00000000
 50
61.50000000
  1
144.40'
 72
1
 11
2359.67571951
 21
2534.30746917
 31
0.00000000
 73
3
 62
7
  0
TEXT
  5
2B3
  8
0
 10
2287.82680868
 20
2386.36386762
 30
0.00000000
 40
10.00000000
 50
70.75000000
  1
C281
 72
1
 11
2287.82680868
 21
2386.36386762
 31
0.00000000
 73
1
 62
7
  0
TEXT
  5
2B5
  8
0
 10
2251.01725363
 20
2220.51241761
 30
0.00000000
 40
10.00000000
 50
80.00000000
  1
S 10°00'00" W
 72
1
 11
2251.01725363
 21
2220.51241761
 31
0.00000000
 73
1
 62
7
  0
TEXT
  5
2B7
  8
0
 10
2251.01725363
 20
2220.51241761
 30
0.00000000
 40
10.00000000
 50
80.00000000
  1
155.25'
 72
1
 11
2251.01725363
 21
2220.51241761
 31
0.00000000
 73
3
 62
7
  0
LINE
  5
2B9
  8
0
 62
5
 10
2294.30504510
 20
3911.85857885
 30
0.00000000
 11
2256.71469485
 21
3781.05270907
 31
0.00000000
  0
TEXT
  5
2BB
  8
0
 10
2275.50986997
 20
3846.45564396
 30
0.00000000
 40
10.00000000
 50
73.96666667
  1
S 16°02'00" W
 72
1
 11
2275.50986997
 21
3846.45564396
 31
0.00000000
 73
1
 62
7
  0
TEXT
  5
2BD
  8
0
 10
2275.50986997
 20
3846.45564396
 30
0.00000000
 40
10.00000000
 50
73.96666667
  1
136.10'
 72
1
 11
2275.50986997
 21
3846.45564396
 31
0.00000000
 73
3
 62
7
  0
ARC
  5
2BF
  8
0
 62
5
 10
3015.15857616
 20
3577.35528509
 30
0.00000000
 40
785.32143842
 50
164.96666667
 51
194.07183052
  0
TEXT
  5
2C0
  8
0
 10
2229.86478237
 20
3583.94460037
 30
0.00000000
 40
10.00000000
 50
89.51924859
  1
C296
 72
1
 11
2229.86478237
 21
3583.94460037
 31
0.00000000
 73
1
 62
7
  0
POLYLINE
  5
2C2
  8
0
 62
5
 66
1
 10
0.00000000
 20
0.00000000
 30
0.00000000
  0
VERTEX
  5
2C3
  8
0
 10
2348.98700901
 20
2621.20678740
 30
0.00000000
  0
VERTEX
  5
2C4
  8
0
 10
2381.39274498
 20
2744.29239450
 30
0.00000000
 42
0.10953307
  0
VERTEX
  5
2C5
  8
0
 10
2390.01994983
 20
2964.03835263
 30
0.00000000
  0
VERTEX
  5
2C6
  8
0
 10
2374.56422034
 20
3069.34013479
 30
0.00000000
  0
VERTEX
  5
2C7
  8
0
 10
2314.73309496
 20
3215.46558239
 30
0.00000000
  0
VERTEX
  5
2C8
  8
0
 10
2254.58012413
 20
3190.83592343
 30
0.00000000
  0
VERTEX
  5
2C9
  8
0
 10
2228.24533494
 20
3255.15333070
 30
0.00000000
  0
VERTEX
  5
2CA
  8
0
 10
2253.40332151
 20
3386.41368761
 30
0.00000000
  0
SEQEND
  5
2CB
  8
0
  0
TEXT
  5
2CC
  8
0
 10
2365.18987699
 20
2682.74959095
 30
0.00000000
 40
10.00000000
 50
75.25000000
  1
N 14°45'00" E
 72
1
 11
2365.18987699
 21
2682.74959095
 31
0.00000000
 73
1
 62
7
  0
TEXT
  5
2CE
  8
0
 10
2365.18987699
 20
2682.74959095
 30
0.00000000
 40
10.00000000
 50
75.25000000
  1
127.28'
 72
1
 11
2365.18987699
 21
2682.74959095
 31
0.00000000
 73
3
 62
7
  0
TEXT
  5
2D0
  8
0
 10
2397.74107229
 20
2853.69289145
 30
0.00000000
 40
10.00000000
 50
87.75172794
  1
C187
 72
1
 11
2397.74107229
 21
2853.69289145
 31
0.00000000
 73
1
 62
7
  0
TEXT
  5
2D2
  8
0
 10
2382.29208509
 20
3016.68924371
 30
0.00000000
 40
10.00000000
 50
278.35000000
  1
N 08°21'00" W
 72
1
 11
2382.29208509
 21
3016.68924371
 31
0.00000000
 73
1
 62
7
  0
TEXT
  5
2D4
  8
0
 10
2382.29208509
 20
3016.68924371
 30
0.00000000
 40
10.00000000
 50
278.35000000
  1
106.43'
 72
1
 11
2382.29208509
 21
3016.68924371
 31
0.00000000
 73
3
 62
7
  0
TEXT
  5
2D6
  8
0
 10
2344.64865765
 20
3142.40285859
 30
0.00000000
 40
10.00000000
 50
292.26666667
  1
N 22°16'00" W
 72
1
 11
2344.64865765
 21
3142.40285859
 31
0.00000000
 73
1
 62
7
  0
TEXT
  5
2D8
  8
0
 10
2344.64865765
 20
3142.40285859
 30
0.00000000
 40
10.00000000
 50
292.26666667
  1
157.90'
 72
1
 11
2344.64865765
 21
3142.40285859
 31
0.00000000
 73
3
 62
7
  0
TEXT
  5
2DA
  8
0
 10
2284.65660955
 20
3203.15075291
 30
0.00000000
 40
10.00000000
 50
22.26666667
  1
L190
 72
1
 11
2284.65660955
 21
3203.15075291
 31
0.00000000
 73
1
 62
7
  0
TEXT
  5
2DC
  8
0
 10
2284.65660955
 20
3203.15075291
 30
0.00000000
 40
10.00000000
 50
22.26666667
  1

 72
1
 11
2284.65660955
 21
3203.15075291
 31
0.00000000
 73
3
 62
7
  0
TEXT
  5
2DE
  8
0
 10
2241.41272954
 20
3222.99462707
 30
0.00000000
 40
10.00000000
 50
292.26666667
  1
L191
 72
1
 11
2241.41272954
 21
3222.99462707
 31
0.00000000
 73
1
 62
7
  0
TEXT
  5
2E0
  8
0
 10
2241.41272954
 20
3222.99462707
 30
0.00000000
 40
10.00000000
 50
292.26666667
  1

 72
1
 11
2241.41272954
 21
3222.99462707
 31
0.00000000
 73
3
 62
7
  0
TEXT
  5
2E2
  8
0
 10
2240.82432822
 20
3320.78350916
 30
0.00000000
 40
10.00000000
 50
79.15000000
  1
N 10°51'00" E
 72
1
 11
2240.82432822
 21
3320.78350916
 31
0.00000000
 73
1
 62
7
  0
TEXT
  5
2E4
  8
0
 10
2240.82432822
 20
3320.78350916
 30
0.00000000
 40
10.00000000
 50
79.15000000
  1
133.65'
 72
1
 11
2240.82432822
 21
3320.78350916
 31
0.00000000
 73
3
 62
7
  0
TEXT
  5
2E6
  8
0
 10
2313.18324205
 20
3003.56023751
 30
0.00000000
 40
10.00000000
 50
0.00000000
  1

 72
1
 11
2313.18324205
 21
3003.56023751
 31
0.00000000
 73
0
 62
7
  0
TEXT
  5
2E7
  8
0
 10
2313.18324205
 20
2988.56023751
 30
0.00000000
 40
10.00000000
 50
0.00000000
  1

 72
1
 11
2313.18324205
 21
2988.56023751
 31
0.00000000
 73
0
 62
7
  0
TEXT
  5
2E8
  8
0
 10
2313.18324205
 20
2973.56023751
 30
0.00000000
 40
10.00000000
 50
0.00000000
  1
31,745 Sq. Feet
 72
1
 11
2313.18324205
 21
2973.56023751
 31
0.00000000
 73
0
 62
7
  0
TEXT
  5
2E9
  8
0
 10
2313.18324205
 20
2958.56023751
 30
0.00000000
 40
10.00000000
 50
0.00000000
  1
0.729 Acres
 72
1
 11
2313.18324205
 21
2958.56023751
 31
0.00000000
 73
0
 62
7
  0
ARC
  5
2EA
  8
0
 62
5
 10
1071.81621627
 20
4264.07936952
 30
0.00000000
 40
1277.21000000
 50
352.19283631
 51
354.39700234
  0
TEXT
  5
2EB
  8
0
 10
2340.29048293
 20
4114.95385553
 30
0.00000000
 40
10.00000000
 50
83.29491933
  1
C305
 72
1
 11
2340.29048293
 21
4114.95385553
 31
0.00000000
 73
1
 62
7
  0
LINE
  5
2ED
  8
0
 62
5
 10
2364.00217603
 20
4271.96159906
 30
0.00000000
 11
2342.92408134
 21
4139.37901082
 31
0.00000000
  0
TEXT
  5
2EF
  8
0
 10
2353.46312868
 20
4205.67030494
 30
0.00000000
 40
10.00000000
 50
80.96666667
  1
S 09°02'00" W
 72
1
 11
2353.46312868
 21
4205.67030494
 31
0.00000000
 73
1
 62
7
  0
TEXT
  5
2F1
  8
0
 10
2353.46312868
 20
4205.67030494
 30
0.00000000
 40
10.00000000
 50
80.96666667
  1
134.25'
 72
1
 11
2353.46312868
 21
4205.67030494
 31
0.00000000
 73
3
 62
7
  0
ARC
  5
2F3
  8
0
 62
5
 10
4202.14833655
 20
5227.12443173
 30
0.00000000
 40
1954.86000000
 50
175.66564509
 51
187.80000000
  0
TEXT
  5
2F4
  8
0
 10
2248.18229118
 20
5168.01171630
 30
0.00000000
 40
10.00000000
 50
91.73282255
  1
C311
 72
1
 11
2248.18229118
 21
5168.01171630
 31
0.00000000
 73
1
 62
7
  0
LINE
  5
2F6
  8
0
 62
5
 10
2349.95372751
 20
4454.72498910
 30
0.00000000
 11
2311.32830596
 21
4626.35226901
 31
0.00000000
  0
TEXT
  5
2F8
  8
0
 10
2330.64101673
 20
4540.53862906
 30
0.00000000
 40
10.00000000
 50
282.68333333
  1
N 12°41'00" W
 72
1
 11
2330.64101673
 21
4540.53862906
 31
0.00000000
 73
1
 62
7
  0
TEXT
  5
2FA
  8
0
 10
2330.64101673
 20
4540.53862906
 30
0.00000000
 40
10.00000000
 50
282.68333333
  1
175.92'
 72
1
 11
2330.64101673
 21
4540.53862906
 31
0.00000000
 73
3
 62
7
  0
LINE
  5
2FC
  8
0
 62
5
 10
2252.87924289
 20
5374.86616615
 30
0.00000000
 11
2268.47540987
 21
5474.84170295
 31
0.00000000
  0
TEXT
  5
2FE
  8
0
 10
2260.67732638
 20
5424.85393455
 30
0.00000000
 40
10.00000000
 50
81.13333333
  1
N 08°52'00" E
 72
1
 11
2260.67732638
 21
5424.85393455
 31
0.00000000
 73
1
 62
7
  0
TEXT
  5
300
  8
0
 10
2260.67732638
 20
5424.85393455
 30
0.00000000
 40
10.00000000
 50
81.13333333
  1
101.18'
 72
1
 11
2260.67732638
 21
5424.85393455
 31
0.00000000
 73
3
 62
7
  0
LINE
  5
302
  8
0
 62
5
 10
2268.47540987
 20
5474.84170295
 30
0.00000000
 11
2283.93058531
 21
5573.91344691
 31
0.00000000
  0
TEXT
  5
304
  8
0
 10
2276.20299759
 20
5524.37757493
 30
0.00000000
 40
10.00000000
 50
81.13333333
  1
N 08°52'00" E
 72
1
 11
2276.20299759
 21
5524.37757493
 31
0.00000000
 73
1
 62
7
  0
TEXT
  5
306
  8
0
 10
2276.20299759
 20
5524.37757493
 30
0.00000000
 40
10.00000000
 50
81.13333333
  1
100.27'
 72
1
 11
2276.20299759
 21
5524.37757493
 31
0.00000000
 73
3
 62
7
  0
LINE
  5
308
  8
0
 62
5
 10
2283.93058531
 20
5573.91344691
 30
0.00000000
 11
2313.76624218
 21
5570.77759302
 31
0.00000000
  0
TEXT
  5
30A
  8
0
 10
2298.84841375
 20
5572.34551997
 30
0.00000000
 40
10.00000000
 50
354.00000000
  1
L214
 72
1
 11
2298.84841375
 21
5572.34551997
 31
0.00000000
 73
1
 62
7
  0
TEXT
  5
30C
  8
0
 10
2298.84841375
 20
5572.34551997
 30
0.00000000
 40
10.00000000
 50
354.00000000
  1

 72
1
 11
2298.84841375
 21
5572.34551997
 31
0.00000000
 73
3
 62
7
  0
LINE
  5
30E
  8
0
 62
5
 10
2313.76624218
 20
5570.77759302
 30
0.00000000
 11
2321.78613461
 21
5670.45548086
 31
0.00000000
  0
TEXT
  5
310
  8
0
 10
2317.77618839
 20
5620.61653694
 30
0.00000000
 40
10.00000000
 50
85.40000000
  1
N 04°36'00" E
 72
1
 11
2317.77618839
 21
5620.61653694
 31
0.00000000
 73
1
 62
7
  0
TEXT
  5
312
  8
0
 10
2317.77618839
 20
5620.61653694
 30
0.00000000
 40
10.00000000
 50
85.40000000
  1
100.00'
 72
1
 11
2317.77618839
 21
5620.61653694
 31
0.00000000
 73
3
 62
7
  0
LINE
  5
314
  8
0
 62
5
 10
2321.78613461
 20
5670.45548086
 30
0.00000000
 11
2351.62179147
 21
5667.31962696
 31
0.00000000
  0
TEXT
  5
316
  8
0
 10
2336.70396304
 20
5668.88755391
 30
0.00000000
 40
10.00000000
 50
354.00000000
  1
L216
 72
1
 11
2336.70396304
 21
5668.88755391
 31
0.00000000
 73
1
 62
7
  0
TEXT
  5
318
  8
0
 10
2336.70396304
 20
5668.88755391
 30
0.00000000
 40
10.00000000
 50
354.00000000
  1

 72
1
 11
2336.70396304
 21
5668.88755391
 31
0.00000000
 73
3
 62
7
  0
LINE
  5
31A
  8
0
 62
5
 10
2311.32830596
 20
4626.35226901
 30
0.00000000
 11
2265.37501313
 21
4961.81948780
 31
0.00000000
  0
TEXT
  5
31C
  8
0
 10
2288.35165954
 20
4794.08587840
 30
0.00000000
 40
10.00000000
 50
277.80000000
  1
N 07°48'00" W
 72
1
 11
2288.35165954
 21
4794.08587840
 31
0.00000000
 73
1
 62
7
  0
TEXT
  5
31E
  8
0
 10
2288.35165954
 20
4794.08587840
 30
0.00000000
 40
10.00000000
 50
277.80000000
  1
338.60'
 72
1
 11
2288.35165954
 21
4794.08587840
 31
0.00000000
 73
3
 62
7
  0
ARC
  5
320
  8
0
 62
5
 10
1071.81621629
 20
4264.07936957
 30
0.00000000
 40
1292.21000000
 50
0.34949527
 51
3.61623099
  0
TEXT
  5
321
  8
0
 10
2363.25246753
 20
4308.79058834
 30
0.00000000
 40
10.00000000
 50
91.98286313
  1
C318
 72
1
 11
2363.25246753
 21
4308.79058834
 31
0.00000000
 73
1
 62
7
  0
LINE
  5
323
  8
0
 62
5
 10
2349.95372751
 20
4454.72498910
 30
0.00000000
 11
2361.45329801
 21
4345.58324390
 31
0.00000000
  0
TEXT
  5
325
  8
0
 10
2355.70351276
 20
4400.15411650
 30
0.00000000
 40
10.00000000
 50
276.01469946
  1
S 06°00'53" E
 72
1
 11
2355.70351276
 21
4400.15411650
 31
0.00000000
 73
1
 62
7
  0
TEXT
  5
327
  8
0
 10
2355.70351276
 20
4400.15411650
 30
0.00000000
 40
10.00000000
 50
276.01469946
  1
109.75'
 72
1
 11
2355.70351276
 21
4400.15411650
 31
0.00000000
 73
3
 62
7
  0
LINE
  5
329
  8
0
 62
5
 10
2330.10535943
 20
5399.78386526
 30
0.00000000
 11
2328.38108255
 21
5378.35311937
 31
0.00000000
  0
TEXT
  5
32B
  8
0
 10
2329.24322099
 20
5389.06849231
 30
0.00000000
 40
10.00000000
 50
85.40000000
  1
L219
 72
1
 11
2329.24322099
 21
5389.06849231
 31
0.00000000
 73
1
 62
7
  0
TEXT
  5
32D
  8
0
 10
2329.24322099
 20
5389.06849231
 30
0.00000000
 40
10.00000000
 50
85.40000000
  1

 72
1
 11
2329.24322099
 21
5389.06849231
 31
0.00000000
 73
3
 62
7
  0
ARC
  5
32F
  8
0
 62
5
 10
4202.22569616
 20
5227.58716152
 30
0.00000000
 40
1879.90000000
 50
175.40000000
 51
177.73706068
  0
TEXT
  5
330
  8
0
 10
2325.69616253
 20
5340.10791243
 30
0.00000000
 40
10.00000000
 50
86.56853034
  1
C220
 72
1
 11
2325.69616253
 21
5340.10791243
 31
0.00000000
 73
1
 62
7
  0
ARC
  5
332
  8
0
 62
5
 10
4202.22569616
 20
5227.58716152
 30
0.00000000
 40
1879.90000000
 50
177.73706068
 51
181.18718156
  0
TEXT
  5
333
  8
0
 10
2322.40853334
 20
5245.23494750
 30
0.00000000
 40
10.00000000
 50
89.46212112
  1
C221
 72
1
 11
2322.40853334
 21
5245.23494750
 31
0.00000000
 73
1
 62
7
  0
LINE
  5
335
  8
0
 62
5
 10
2351.62179147
 20
5667.31962696
 30
0.00000000
 11
2330.10535943
 21
5399.78386526
 31
0.00000000
  0
TEXT
  5
337
  8
0
 10
2340.86357545
 20
5533.55174611
 30
0.00000000
 40
10.00000000
 50
85.40191171
  1
S 04°35'53" W
 72
1
 11
2340.86357545
 21
5533.55174611
 31
0.00000000
 73
1
 62
7
  0
TEXT
  5
339
  8
0
 10
2340.86357545
 20
5533.55174611
 30
0.00000000
 40
10.00000000
 50
85.40191171
  1
268.40'
 72
1
 11
2340.86357545
 21
5533.55174611
 31
0.00000000
 73
3
 62
7
  0
POLYLINE
  5
33B
  8
0
 62
5
 66
1
 10
0.00000000
 20
0.00000000
 30
0.00000000
  0
VERTEX
  5
33C
  8
0
 10
2348.25300208
 20
3755.65481668
 30
0.00000000
  0
VERTEX
  5
33D
  8
0
 10
2385.84335233
 20
3886.46068646
 30
0.00000000
 42
0.05748897
  0
VERTEX
  5
33E
  8
0
 10
2437.30819180
 20
4195.56564325
 30
0.00000000
  0
SEQEND
  5
33F
  8
0
  0
TEXT
  5
340
  8
0
 10
2367.04817721
 20
3821.05775157
 30
0.00000000
 40
10.00000000
 50
73.96666667
  1
N 16°02'00" E
 72
1
 11
2367.04817721
 21
3821.05775157
 31
0.00000000
 73
1
 62
7
  0
TEXT
  5
342
  8
0
 10
2367.04817721
 20
3821.05775157
 30
0.00000000
 40
10.00000000
 50
73.96666667
  1
136.10'
 72
1
 11
2367.04817721
 21
3821.05775157
 31
0.00000000
 73
3
 62
7
  0
TEXT
  5
344
  8
0
 10
2420.46083466
 20
4039.53383458
 30
0.00000000
 40
10.00000000
 50
80.54717411
  1
C235
 72
1
 11
2420.46083466
 21
4039.53383458
 31
0.00000000
 73
1
 62
7
  0
POLYLINE
  5
346
  8
0
 62
5
 66
1
 10
0.00000000
 20
0.00000000
 30
0.00000000
  0
VERTEX
  5
347
  8
0
 10
2527.91770703
 20
4239.35328963
 30
0.00000000
  0
VERTEX
  5
348
  8
0
 10
2491.85661141
 20
4328.16105890
 30
0.00000000
  0
SEQEND
  5
349
  8
0
  0
TEXT
  5
34A
  8
0
 10
2509.88715922
 20
4283.75717426
 30
0.00000000
 40
10.00000000
 50
292.10000000
  1
N 22°06'00" W
 72
1
 11
2509.88715922
 21
4283.75717426
 31
0.00000000
 73
1
 62
7
  0
TEXT
  5
34C
  8
0
 10
2509.88715922
 20
4283.75717426
 30
0.00000000
 40
10.00000000
 50
292.10000000
  1
95.85'
 72
1
 11
2509.88715922
 21
4283.75717426
 31
0.00000000
 73
3
 62
7
  0
ARC
  5
34E
  8
0
 62
5
 10
3015.15857616
 20
3577.35528509
 30
0.00000000
 40
685.32143842
 50
195.00712544
 51
202.26666667
  0
TEXT
  5
34F
  8
0
 10
2365.77346325
 20
3358.34741060
 30
0.00000000
 40
10.00000000
 50
288.63689605
  1
C333
 72
1
 11
2365.77346325
 21
3358.34741060
 31
0.00000000
 73
1
 62
7
  0
LINE
  5
351
  8
0
 62
5
 10
2433.80037511
 20
3188.57724298
 30
0.00000000
 11
2380.94133780
 21
3317.67477268
 31
0.00000000
  0
TEXT
  5
353
  8
0
 10
2407.37085646
 20
3253.12600783
 30
0.00000000
 40
10.00000000
 50
292.26666667
  1
N 22°16'00" W
 72
1
 11
2407.37085646
 21
3253.12600783
 31
0.00000000
 73
1
 62
7
  0
TEXT
  5
355
  8
0
 10
2407.37085646
 20
3253.12600783
 30
0.00000000
 40
10.00000000
 50
292.26666667
  1
139.50'
 72
1
 11
2407.37085646
 21
3253.12600783
 31
0.00000000
 73
3
 62
7
  0
LINE
  5
357
  8
0
 62
5
 10
2330.44468985
 20
3548.50449924
 30
0.00000000
 11
2310.42335101
 21
3606.10583159
 31
0.00000000
  0
TEXT
  5
359
  8
0
 10
2320.43402043
 20
3577.30516541
 30
0.00000000
 40
10.00000000
 50
289.16666667
  1
L240
 72
1
 11
2320.43402043
 21
3577.30516541
 31
0.00000000
 73
1
 62
7
  0
TEXT
  5
35B
  8
0
 10
2320.43402043
 20
3577.30516541
 30
0.00000000
 40
10.00000000
 50
289.16666667
  1

 72
1
 11
2320.43402043
 21
3577.30516541
 31
0.00000000
 73
3
 62
7
  0
LINE
  5
35D
  8
0
 62
5
 10
2353.21096327
 20
3399.89872210
 30
0.00000000
 11
2406.60668683
 21
3509.51619655
 31
0.00000000
  0
TEXT
  5
35F
  8
0
 10
2379.90882505
 20
3454.70745933
 30
0.00000000
 40
10.00000000
 50
64.02884253
  1
N 25°58'16" E
 72
1
 11
2379.90882505
 21
3454.70745933
 31
0.00000000
 73
1
 62
7
  0
TEXT
  5
361
  8
0
 10
2379.90882505
 20
3454.70745933
 30
0.00000000
 40
10.00000000
 50
64.02884253
  1
121.93'
 72
1
 11
2379.90882505
 21
3454.70745933
 31
0.00000000
 73
3
 62
7
  0
LINE
  5
363
  8
0
 62
5
 10
2406.60668683
 20
3509.51619655
 30
0.00000000
 11
2330.44468985
 21
3548.50449924
 31
0.00000000
  0
TEXT
  5
365
  8
0
 10
2368.52568834
 20
3529.01034790
 30
0.00000000
 40
10.00000000
 50
332.89151128
  1
L341
 72
1
 11
2368.52568834
 21
3529.01034790
 31
0.00000000
 73
1
 62
7
  0
TEXT
  5
367
  8
0
 10
2368.52568834
 20
3529.01034790
 30
0.00000000
 40
10.00000000
 50
332.89151128
  1

 72
1
 11
2368.52568834
 21
3529.01034790
 31
0.00000000
 73
3
 62
7
  0
ARC
  5
369
  8
0
 62
5
 10
3015.15857616
 20
3577.35528509
 30
0.00000000
 40
705.32143842
 50
170.37312544
 51
177.66384317
  0
TEXT
  5
36A
  8
0
 10
2313.67721394
 20
3650.85514868
 30
0.00000000
 40
10.00000000
 50
84.01848431
  1
C343
 72
1
 11
2313.67721394
 21
3650.85514868
 31
0.00000000
 73
1
 62
7
  0
ENDSEC
  0
EOF
